  0
SECTION
  2
HEADER
  9
$ACADVER
  1
AC1018
  9
$ACADMAINTVER
 70
     0
  9
$DWGCODEPAGE
  3
ANSI_932
  9
$INSBASE
 10
0.0
 20
0.0
 30
0.0
  9
$EXTMIN
 10
1.000000000000000E+20
 20
1.000000000000000E+20
 30
1.000000000000000E+20
  9
$EXTMAX
 10
-1.000000000000000E+20
 20
-1.000000000000000E+20
 30
-1.000000000000000E+20
  9
$LIMMIN
 10
0.0
 20
0.0
  9
$LIMMAX
 10
12.0
 20
9.0
  9
$ORTHOMODE
 70
     0
  9
$REGENMODE
 70
     1
  9
$FILLMODE
 70
     1
  9
$QTEXTMODE
 70
     0
  9
$MIRRTEXT
 70
     1
  9
$LTSCALE
 40
1.0
  9
$ATTMODE
 70
     1
  9
$TEXTSIZE
 40
0.2
  9
$TRACEWID
 40
0.05
  9
$TEXTSTYLE
  7
Standard
  9
$CLAYER
  8
0
  9
$CELTYPE
  6
ByLayer
  9
$CECOLOR
 62
   256
  9
$CELTSCALE
 40
1.0
  9
$DISPSILH
 70
     0
  9
$DIMSCALE
 40
1.0
  9
$DIMASZ
 40
0.18
  9
$DIMEXO
 40
0.0625
  9
$DIMDLI
 40
0.38
  9
$DIMRND
 40
0.0
  9
$DIMDLE
 40
0.0
  9
$DIMEXE
 40
0.18
  9
$DIMTP
 40
0.0
  9
$DIMTM
 40
0.0
  9
$DIMTXT
 40
0.18
  9
$DIMCEN
 40
0.09
  9
$DIMTSZ
 40
0.0
  9
$DIMTOL
 70
     0
  9
$DIMLIM
 70
     0
  9
$DIMTIH
 70
     1
  9
$DIMTOH
 70
     1
  9
$DIMSE1
 70
     0
  9
$DIMSE2
 70
     0
  9
$DIMTAD
 70
     0
  9
$DIMZIN
 70
     0
  9
$DIMBLK
  1

  9
$DIMASO
 70
     1
  9
$DIMSHO
 70
     1
  9
$DIMPOST
  1

  9
$DIMAPOST
  1

  9
$DIMALT
 70
     0
  9
$DIMALTD
 70
     2
  9
$DIMALTF
 40
25.4
  9
$DIMLFAC
 40
1.0
  9
$DIMTOFL
 70
     0
  9
$DIMTVP
 40
0.0
  9
$DIMTIX
 70
     0
  9
$DIMSOXD
 70
     0
  9
$DIMSAH
 70
     0
  9
$DIMBLK1
  1

  9
$DIMBLK2
  1

  9
$DIMSTYLE
  2
Standard
  9
$DIMCLRD
 70
     0
  9
$DIMCLRE
 70
     0
  9
$DIMCLRT
 70
     0
  9
$DIMTFAC
 40
1.0
  9
$DIMGAP
 40
0.09
  9
$DIMJUST
 70
     0
  9
$DIMSD1
 70
     0
  9
$DIMSD2
 70
     0
  9
$DIMTOLJ
 70
     1
  9
$DIMTZIN
 70
     0
  9
$DIMALTZ
 70
     0
  9
$DIMALTTZ
 70
     0
  9
$DIMUPT
 70
     0
  9
$DIMDEC
 70
     4
  9
$DIMTDEC
 70
     4
  9
$DIMALTU
 70
     2
  9
$DIMALTTD
 70
     2
  9
$DIMTXSTY
  7
Standard
  9
$DIMAUNIT
 70
     0
  9
$DIMADEC
 70
     0
  9
$DIMALTRND
 40
0.0
  9
$DIMAZIN
 70
     0
  9
$DIMDSEP
 70
    46
  9
$DIMATFIT
 70
     3
  9
$DIMFRAC
 70
     0
  9
$DIMLDRBLK
  1

  9
$DIMLUNIT
 70
     2
  9
$DIMLWD
 70
    -2
  9
$DIMLWE
 70
    -2
  9
$DIMTMOVE
 70
     0
  9
$LUNITS
 70
     2
  9
$LUPREC
 70
     4
  9
$SKETCHINC
 40
0.1
  9
$FILLETRAD
 40
0.5
  9
$AUNITS
 70
     0
  9
$AUPREC
 70
     0
  9
$MENU
  1
.
  9
$ELEVATION
 40
0.0
  9
$PELEVATION
 40
0.0
  9
$THICKNESS
 40
0.0
  9
$LIMCHECK
 70
     0
  9
$CHAMFERA
 40
0.5
  9
$CHAMFERB
 40
0.5
  9
$CHAMFERC
 40
1.0
  9
$CHAMFERD
 40
0.0
  9
$SKPOLY
 70
     0
  9
$TDCREATE
 40
2455998.781770833
  9
$TDUCREATE
 40
2455998.990104167
  9
$TDUPDATE
 40
2455998.781770845
  9
$TDUUPDATE
 40
2455998.990104178
  9
$TDINDWG
 40
0.0000000116
  9
$TDUSRTIMER
 40
0.0000000116
  9
$USRTIMER
 70
     1
  9
$ANGBASE
 50
0.0
  9
$ANGDIR
 70
     0
  9
$PDMODE
 70
     0
  9
$PDSIZE
 40
0.0
  9
$PLINEWID
 40
0.0
  9
$SPLFRAME
 70
     0
  9
$SPLINETYPE
 70
     6
  9
$SPLINESEGS
 70
     8
  9
$HANDSEED
  5
223
  9
$SURFTAB1
 70
     6
  9
$SURFTAB2
 70
     6
  9
$SURFTYPE
 70
     6
  9
$SURFU
 70
     6
  9
$SURFV
 70
     6
  9
$UCSBASE
  2

  9
$UCSNAME
  2

  9
$UCSORG
 10
0.0
 20
0.0
 30
0.0
  9
$UCSXDIR
 10
1.0
 20
0.0
 30
0.0
  9
$UCSYDIR
 10
0.0
 20
1.0
 30
0.0
  9
$UCSORTHOREF
  2

  9
$UCSORTHOVIEW
 70
     0
  9
$UCSORGTOP
 10
0.0
 20
0.0
 30
0.0
  9
$UCSORGBOTTOM
 10
0.0
 20
0.0
 30
0.0
  9
$UCSORGLEFT
 10
0.0
 20
0.0
 30
0.0
  9
$UCSORGRIGHT
 10
0.0
 20
0.0
 30
0.0
  9
$UCSORGFRONT
 10
0.0
 20
0.0
 30
0.0
  9
$UCSORGBACK
 10
0.0
 20
0.0
 30
0.0
  9
$PUCSBASE
  2

  9
$PUCSNAME
  2

  9
$PUCSORG
 10
0.0
 20
0.0
 30
0.0
  9
$PUCSXDIR
 10
1.0
 20
0.0
 30
0.0
  9
$PUCSYDIR
 10
0.0
 20
1.0
 30
0.0
  9
$PUCSORTHOREF
  2

  9
$PUCSORTHOVIEW
 70
     0
  9
$PUCSORGTOP
 10
0.0
 20
0.0
 30
0.0
  9
$PUCSORGBOTTOM
 10
0.0
 20
0.0
 30
0.0
  9
$PUCSORGLEFT
 10
0.0
 20
0.0
 30
0.0
  9
$PUCSORGRIGHT
 10
0.0
 20
0.0
 30
0.0
  9
$PUCSORGFRONT
 10
0.0
 20
0.0
 30
0.0
  9
$PUCSORGBACK
 10
0.0
 20
0.0
 30
0.0
  9
$USERI1
 70
     0
  9
$USERI2
 70
     0
  9
$USERI3
 70
     0
  9
$USERI4
 70
     0
  9
$USERI5
 70
     0
  9
$USERR1
 40
0.0
  9
$USERR2
 40
0.0
  9
$USERR3
 40
0.0
  9
$USERR4
 40
0.0
  9
$USERR5
 40
0.0
  9
$WORLDVIEW
 70
     1
  9
$SHADEDGE
 70
     3
  9
$SHADEDIF
 70
    70
  9
$TILEMODE
 70
     1
  9
$MAXACTVP
 70
    64
  9
$PINSBASE
 10
0.0
 20
0.0
 30
0.0
  9
$PLIMCHECK
 70
     0
  9
$PEXTMIN
 10
1.000000000000000E+20
 20
1.000000000000000E+20
 30
1.000000000000000E+20
  9
$PEXTMAX
 10
-1.000000000000000E+20
 20
-1.000000000000000E+20
 30
-1.000000000000000E+20
  9
$PLIMMIN
 10
0.0
 20
0.0
  9
$PLIMMAX
 10
12.0
 20
9.0
  9
$UNITMODE
 70
     0
  9
$VISRETAIN
 70
     1
  9
$PLINEGEN
 70
     0
  9
$PSLTSCALE
 70
     1
  9
$TREEDEPTH
 70
  3020
  9
$CMLSTYLE
  2
Standard
  9
$CMLJUST
 70
     0
  9
$CMLSCALE
 40
1.0
  9
$PROXYGRAPHICS
 70
     1
  9
$MEASUREMENT
 70
     0
  9
$CELWEIGHT
370
    -1
  9
$ENDCAPS
280
     0
  9
$JOINSTYLE
280
     0
  9
$LWDISPLAY
290
     1
  9
$INSUNITS
 70
     1
  9
$HYPERLINKBASE
  1

  9
$STYLESHEET
  1

  9
$XEDIT
290
     1
  9
$CEPSNTYPE
380
     0
  9
$PSTYLEMODE
290
     1
  9
$FINGERPRINTGUID
  2
{26D6A9C9-E4D9-F147-03F1-058BD5FC19EB}
  9
$VERSIONGUID
  2
{FAEB1C32-E019-11D5-929B-00C0DF256EC4}
  9
$EXTNAMES
290
     1
  9
$PSVPSCALE
 40
0.0
  9
$OLESTARTUP
290
     0
  9
$SORTENTS
280
   127
  9
$INDEXCTL
280
     0
  9
$HIDETEXT
280
     1
  9
$XCLIPFRAME
290
     0
  9
$HALOGAP
280
     0
  9
$OBSCOLOR
 70
   257
  9
$OBSLTYPE
280
     0
  9
$INTERSECTIONDISPLAY
280
     0
  9
$INTERSECTIONCOLOR
 70
   257
  9
$DIMASSOC
280
     2
  9
$PROJECTNAME
  1

  0
ENDSEC
  0
SECTION
  2
CLASSES
  0
CLASS
  1
ACDBDICTIONARYWDFLT
  2
AcDbDictionaryWithDefault
  3
ObjectDBX Classes
 90
        0
 91
        3
280
     0
281
     0
  0
CLASS
  1
VISUALSTYLE
  2
AcDbVisualStyle
  3
ObjectDBX Classes
 90
     4095
 91
        3
280
     0
281
     0
  0
ENDSEC
  0
SECTION
  2
TABLES
  0
TABLE
  2
VPORT
  5
8
330
0
100
AcDbSymbolTable
 70
     1
  0
VPORT
  5
29
330
8
100
AcDbSymbolTableRecord
100
AcDbViewportTableRecord
  2
*Active
 70
     0
 10
0.0
 20
0.0
 11
1.0
 21
1.0
 12
0.0
 22
0.0
 13
0.0
 23
0.0
 14
0.5
 24
0.5
 15
0.5
 25
0.5
 16
0.0
 26
0.0
 36
1.0
 17
5.500003626946837
 27
-4.250002802640737
 37
0.0
 40
8.500005605281475
 41
1.294117647058824
 42
50.0
 43
0.0
 44
0.0
 50
0.0
 51
0.0
 71
     0
 72
   100
 73
     1
 74
     3
 75
     0
 76
     0
 77
     0
 78
     0
281
     0
 65
     1
110
0.0
120
0.0
130
0.0
111
1.0
121
0.0
131
0.0
112
0.0
122
1.0
132
0.0
 79
     0
146
0.0
  0
ENDTAB
  0
TABLE
  2
LTYPE
  5
5
330
0
100
AcDbSymbolTable
 70
    15
  0
LTYPE
  5
14
330
5
100
AcDbSymbolTableRecord
100
AcDbLinetypeTableRecord
  2
ByBlock
 70
     0
  3

 72
    65
 73
     0
 40
0.0
  0
LTYPE
  5
15
330
5
100
AcDbSymbolTableRecord
100
AcDbLinetypeTableRecord
  2
ByLayer
 70
     0
  3

 72
    65
 73
     0
 40
0.0
  0
LTYPE
  5
16
330
5
100
AcDbSymbolTableRecord
100
AcDbLinetypeTableRecord
  2
Continuous
 70
     0
  3
Solid line
 72
    65
 73
     0
 40
0.0
  0
LTYPE
  5
57
330
5
100
AcDbSymbolTableRecord
100
AcDbLinetypeTableRecord
  2
AI-Linetype-1
 70
     0
  3
Adobe Illustrator Linetype No. 1
 72
    65
 73
     2
 40
0.3333335531482932
 49
0.1666667765741466
 74
     0
 49
-0.1666667765741466
 74
     0
  0
LTYPE
  5
61
330
5
100
AcDbSymbolTableRecord
100
AcDbLinetypeTableRecord
  2
AI-Linetype-2
 70
     0
  3
Adobe Illustrator Linetype No. 2
 72
    65
 73
     2
 40
0.3333335531482932
 49
0.1666667765741466
 74
     0
 49
-0.1666667765741466
 74
     0
  0
LTYPE
  5
6B
330
5
100
AcDbSymbolTableRecord
100
AcDbLinetypeTableRecord
  2
AI-Linetype-3
 70
     0
  3
Adobe Illustrator Linetype No. 3
 72
    65
 73
     2
 40
0.3333335531482932
 49
0.1666667765741466
 74
     0
 49
-0.1666667765741466
 74
     0
  0
LTYPE
  5
75
330
5
100
AcDbSymbolTableRecord
100
AcDbLinetypeTableRecord
  2
AI-Linetype-4
 70
     0
  3
Adobe Illustrator Linetype No. 4
 72
    65
 73
     2
 40
0.3333335531482932
 49
0.1666667765741466
 74
     0
 49
-0.1666667765741466
 74
     0
  0
LTYPE
  5
C0
330
5
100
AcDbSymbolTableRecord
100
AcDbLinetypeTableRecord
  2
AI-Linetype-5
 70
     0
  3
Adobe Illustrator Linetype No. 5
 72
    65
 73
     2
 40
0.270439776635432
 49
0.135219888317716
 74
     0
 49
-0.135219888317716
 74
     0
  0
LTYPE
  5
D5
330
5
100
AcDbSymbolTableRecord
100
AcDbLinetypeTableRecord
  2
AI-Linetype-6
 70
     0
  3
Adobe Illustrator Linetype No. 6
 72
    65
 73
     2
 40
0.2687221020950605
 49
0.1343610510475302
 74
     0
 49
-0.1343610510475302
 74
     0
  0
LTYPE
  5
EA
330
5
100
AcDbSymbolTableRecord
100
AcDbLinetypeTableRecord
  2
AI-Linetype-7
 70
     0
  3
Adobe Illustrator Linetype No. 7
 72
    65
 73
     2
 40
0.3333335531482932
 49
0.1666667765741466
 74
     0
 49
-0.1666667765741466
 74
     0
  0
LTYPE
  5
FF
330
5
100
AcDbSymbolTableRecord
100
AcDbLinetypeTableRecord
  2
AI-Linetype-8
 70
     0
  3
Adobe Illustrator Linetype No. 8
 72
    65
 73
     2
 40
0.3333335531482932
 49
0.1666667765741466
 74
     0
 49
-0.1666667765741466
 74
     0
  0
LTYPE
  5
114
330
5
100
AcDbSymbolTableRecord
100
AcDbLinetypeTableRecord
  2
AI-Linetype-9
 70
     0
  3
Adobe Illustrator Linetype No. 9
 72
    65
 73
     2
 40
0.3333335531482932
 49
0.1666667765741466
 74
     0
 49
-0.1666667765741466
 74
     0
  0
LTYPE
  5
129
330
5
100
AcDbSymbolTableRecord
100
AcDbLinetypeTableRecord
  2
AI-Linetype-10
 70
     0
  3
Adobe Illustrator Linetype No. 10
 72
    65
 73
     2
 40
0.1518675030726129
 49
0.0759337515363065
 74
     0
 49
-0.0759337515363065
 74
     0
  0
LTYPE
  5
13E
330
5
100
AcDbSymbolTableRecord
100
AcDbLinetypeTableRecord
  2
AI-Linetype-11
 70
     0
  3
Adobe Illustrator Linetype No. 11
 72
    65
 73
     2
 40
0.1518675030726129
 49
0.0759337515363065
 74
     0
 49
-0.0759337515363065
 74
     0
  0
LTYPE
  5
153
330
5
100
AcDbSymbolTableRecord
100
AcDbLinetypeTableRecord
  2
AI-Linetype-12
 70
     0
  3
Adobe Illustrator Linetype No. 12
 72
    65
 73
     2
 40
0.1518675030726129
 49
0.0759337515363065
 74
     0
 49
-0.0759337515363065
 74
     0
  0
LTYPE
  5
168
330
5
100
AcDbSymbolTableRecord
100
AcDbLinetypeTableRecord
  2
AI-Linetype-13
 70
     0
  3
Adobe Illustrator Linetype No. 13
 72
    65
 73
     2
 40
0.1518675030726129
 49
0.0759337515363065
 74
     0
 49
-0.0759337515363065
 74
     0
  0
LTYPE
  5
17D
330
5
100
AcDbSymbolTableRecord
100
AcDbLinetypeTableRecord
  2
AI-Linetype-14
 70
     0
  3
Adobe Illustrator Linetype No. 14
 72
    65
 73
     2
 40
0.3333335531482932
 49
0.1666667765741466
 74
     0
 49
-0.1666667765741466
 74
     0
  0
ENDTAB
  0
TABLE
  2
LAYER
  5
2
330
0
100
AcDbSymbolTable
 70
     2
  0
LAYER
  5
10
330
2
100
AcDbSymbolTableRecord
100
AcDbLayerTableRecord
  2
0
 70
     0
 62
     7
  6
Continuous
370
    -3
390
F
  0
LAYER
  5
3B
330
2
100
AcDbSymbolTableRecord
100
AcDbLayerTableRecord
  2
Layer 1
 70
     0
 62
     7
  6
Continuous
370
    -3
390
F
  0
ENDTAB
  0
TABLE
  2
STYLE
  5
3
330
0
100
AcDbSymbolTable
 70
     1
  0
STYLE
  5
11
330
3
100
AcDbSymbolTableRecord
100
AcDbTextStyleTableRecord
  2
Standard
 70
     0
 40
0.0
 41
1.0
 50
0.0
 71
     0
 42
0.2
  3
txt
  4

  0
ENDTAB
  0
TABLE
  2
VIEW
  5
6
330
0
100
AcDbSymbolTable
 70
     0
  0
ENDTAB
  0
TABLE
  2
UCS
  5
7
330
0
100
AcDbSymbolTable
 70
     0
  0
ENDTAB
  0
TABLE
  2
APPID
  5
9
330
0
100
AcDbSymbolTable
 70
     1
  0
APPID
  5
12
330
9
100
AcDbSymbolTableRecord
100
AcDbRegAppTableRecord
  2
ACAD
 70
     0
  0
ENDTAB
  0
TABLE
  2
DIMSTYLE
  5
A
330
0
100
AcDbSymbolTable
 70
     1
100
AcDbDimStyleTable
  0
DIMSTYLE
105
27
330
A
100
AcDbSymbolTableRecord
100
AcDbDimStyleTableRecord
  2
Standard
 70
     0
340
11
  0
ENDTAB
  0
TABLE
  2
BLOCK_RECORD
  5
1
330
0
100
AcDbSymbolTable
 70
    39
  0
BLOCK_RECORD
  5
1F
330
1
100
AcDbSymbolTableRecord
100
AcDbBlockTableRecord
  2
*Model_Space
340
22
  0
BLOCK_RECORD
  5
1B
330
1
100
AcDbSymbolTableRecord
100
AcDbBlockTableRecord
  2
*Paper_Space
340
1E
  0
BLOCK_RECORD
  5
23
330
1
100
AcDbSymbolTableRecord
100
AcDbBlockTableRecord
  2
*Paper_Space0
340
26
  0
BLOCK_RECORD
  5
3E
330
1
100
AcDbSymbolTableRecord
100
AcDbBlockTableRecord
  2
block 2
340
0
102
{BLKREFS
331
3F
102
}
  0
BLOCK_RECORD
  5
4A
330
1
100
AcDbSymbolTableRecord
100
AcDbBlockTableRecord
  2
block 3
340
0
102
{BLKREFS
331
4B
102
}
  0
BLOCK_RECORD
  5
B0
330
1
100
AcDbSymbolTableRecord
100
AcDbBlockTableRecord
  2
block 4
340
0
102
{BLKREFS
331
B1
102
}
  0
BLOCK_RECORD
  5
B4
330
1
100
AcDbSymbolTableRecord
100
AcDbBlockTableRecord
  2
block 5
340
0
102
{BLKREFS
331
B5
102
}
  0
BLOCK_RECORD
  5
C5
330
1
100
AcDbSymbolTableRecord
100
AcDbBlockTableRecord
  2
block 6
340
0
102
{BLKREFS
331
C6
102
}
  0
BLOCK_RECORD
  5
C9
330
1
100
AcDbSymbolTableRecord
100
AcDbBlockTableRecord
  2
block 7
340
0
102
{BLKREFS
331
CA
102
}
  0
BLOCK_RECORD
  5
DA
330
1
100
AcDbSymbolTableRecord
100
AcDbBlockTableRecord
  2
block 8
340
0
102
{BLKREFS
331
DB
102
}
  0
BLOCK_RECORD
  5
DE
330
1
100
AcDbSymbolTableRecord
100
AcDbBlockTableRecord
  2
block 9
340
0
102
{BLKREFS
331
DF
102
}
  0
BLOCK_RECORD
  5
EF
330
1
100
AcDbSymbolTableRecord
100
AcDbBlockTableRecord
  2
block 10
340
0
102
{BLKREFS
331
F0
102
}
  0
BLOCK_RECORD
  5
F3
330
1
100
AcDbSymbolTableRecord
100
AcDbBlockTableRecord
  2
block 11
340
0
102
{BLKREFS
331
F4
102
}
  0
BLOCK_RECORD
  5
104
330
1
100
AcDbSymbolTableRecord
100
AcDbBlockTableRecord
  2
block 12
340
0
102
{BLKREFS
331
105
102
}
  0
BLOCK_RECORD
  5
108
330
1
100
AcDbSymbolTableRecord
100
AcDbBlockTableRecord
  2
block 13
340
0
102
{BLKREFS
331
109
102
}
  0
BLOCK_RECORD
  5
119
330
1
100
AcDbSymbolTableRecord
100
AcDbBlockTableRecord
  2
block 14
340
0
102
{BLKREFS
331
11A
102
}
  0
BLOCK_RECORD
  5
11D
330
1
100
AcDbSymbolTableRecord
100
AcDbBlockTableRecord
  2
block 15
340
0
102
{BLKREFS
331
11E
102
}
  0
BLOCK_RECORD
  5
12E
330
1
100
AcDbSymbolTableRecord
100
AcDbBlockTableRecord
  2
block 16
340
0
102
{BLKREFS
331
12F
102
}
  0
BLOCK_RECORD
  5
132
330
1
100
AcDbSymbolTableRecord
100
AcDbBlockTableRecord
  2
block 17
340
0
102
{BLKREFS
331
133
102
}
  0
BLOCK_RECORD
  5
143
330
1
100
AcDbSymbolTableRecord
100
AcDbBlockTableRecord
  2
block 18
340
0
102
{BLKREFS
331
144
102
}
  0
BLOCK_RECORD
  5
147
330
1
100
AcDbSymbolTableRecord
100
AcDbBlockTableRecord
  2
block 19
340
0
102
{BLKREFS
331
148
102
}
  0
BLOCK_RECORD
  5
158
330
1
100
AcDbSymbolTableRecord
100
AcDbBlockTableRecord
  2
block 20
340
0
102
{BLKREFS
331
159
102
}
  0
BLOCK_RECORD
  5
15C
330
1
100
AcDbSymbolTableRecord
100
AcDbBlockTableRecord
  2
block 21
340
0
102
{BLKREFS
331
15D
102
}
  0
BLOCK_RECORD
  5
16D
330
1
100
AcDbSymbolTableRecord
100
AcDbBlockTableRecord
  2
block 22
340
0
102
{BLKREFS
331
16E
102
}
  0
BLOCK_RECORD
  5
171
330
1
100
AcDbSymbolTableRecord
100
AcDbBlockTableRecord
  2
block 23
340
0
102
{BLKREFS
331
172
102
}
  0
BLOCK_RECORD
  5
186
330
1
100
AcDbSymbolTableRecord
100
AcDbBlockTableRecord
  2
block 24
340
0
102
{BLKREFS
331
187
102
}
  0
BLOCK_RECORD
  5
197
330
1
100
AcDbSymbolTableRecord
100
AcDbBlockTableRecord
  2
block 25
340
0
102
{BLKREFS
331
198
102
}
  0
BLOCK_RECORD
  5
19F
330
1
100
AcDbSymbolTableRecord
100
AcDbBlockTableRecord
  2
block 26
340
0
102
{BLKREFS
331
1A0
102
}
  0
BLOCK_RECORD
  5
1B3
330
1
100
AcDbSymbolTableRecord
100
AcDbBlockTableRecord
  2
block 27
340
0
102
{BLKREFS
331
1B4
102
}
  0
BLOCK_RECORD
  5
1C4
330
1
100
AcDbSymbolTableRecord
100
AcDbBlockTableRecord
  2
block 28
340
0
102
{BLKREFS
331
1C5
102
}
  0
BLOCK_RECORD
  5
1CC
330
1
100
AcDbSymbolTableRecord
100
AcDbBlockTableRecord
  2
block 29
340
0
102
{BLKREFS
331
1CD
102
}
  0
BLOCK_RECORD
  5
1E0
330
1
100
AcDbSymbolTableRecord
100
AcDbBlockTableRecord
  2
block 30
340
0
102
{BLKREFS
331
1E1
102
}
  0
BLOCK_RECORD
  5
1E7
330
1
100
AcDbSymbolTableRecord
100
AcDbBlockTableRecord
  2
block 31
340
0
102
{BLKREFS
331
1E8
102
}
  0
BLOCK_RECORD
  5
1EE
330
1
100
AcDbSymbolTableRecord
100
AcDbBlockTableRecord
  2
block 32
340
0
102
{BLKREFS
331
1EF
102
}
  0
BLOCK_RECORD
  5
1F4
330
1
100
AcDbSymbolTableRecord
100
AcDbBlockTableRecord
  2
block 33
340
0
102
{BLKREFS
331
1F5
102
}
  0
BLOCK_RECORD
  5
1FA
330
1
100
AcDbSymbolTableRecord
100
AcDbBlockTableRecord
  2
block 34
340
0
102
{BLKREFS
331
1FB
102
}
  0
BLOCK_RECORD
  5
1FE
330
1
100
AcDbSymbolTableRecord
100
AcDbBlockTableRecord
  2
block 35
340
0
102
{BLKREFS
331
1FF
102
}
  0
BLOCK_RECORD
  5
202
330
1
100
AcDbSymbolTableRecord
100
AcDbBlockTableRecord
  2
block 36
340
0
102
{BLKREFS
331
203
102
}
  0
BLOCK_RECORD
  5
20E
330
1
100
AcDbSymbolTableRecord
100
AcDbBlockTableRecord
  2
block 37
340
0
102
{BLKREFS
331
20F
102
}
  0
BLOCK_RECORD
  5
212
330
1
100
AcDbSymbolTableRecord
100
AcDbBlockTableRecord
  2
block 38
340
0
102
{BLKREFS
331
213
102
}
  0
BLOCK_RECORD
  5
216
330
1
100
AcDbSymbolTableRecord
100
AcDbBlockTableRecord
  2
block 39
340
0
102
{BLKREFS
331
217
102
}
  0
ENDTAB
  0
ENDSEC
  0
SECTION
  2
BLOCKS
  0
BLOCK
  5
20
330
1F
100
AcDbEntity
  8
0
100
AcDbBlockBegin
  2
*Model_Space
 70
     0
 71
     0
 10
0.0
 20
0.0
 30
0.0
  3
*Model_Space
  1

  0
ENDBLK
  5
21
330
1F
100
AcDbEntity
  8
0
100
AcDbBlockEnd
  0
BLOCK
  5
1C
330
1B
100
AcDbEntity
 67
     1
  8
0
100
AcDbBlockBegin
  2
*Paper_Space
 70
     0
 71
     0
 10
0.0
 20
0.0
 30
0.0
  3
*Paper_Space
  1

  0
ENDBLK
  5
1D
330
1B
100
AcDbEntity
 67
     1
  8
0
100
AcDbBlockEnd
  0
BLOCK
  5
24
330
23
100
AcDbEntity
  8
0
100
AcDbBlockBegin
  2
*Paper_Space0
 70
     0
 71
     0
 10
0.0
 20
0.0
 30
0.0
  3
*Paper_Space0
  1

  0
ENDBLK
  5
25
330
23
100
AcDbEntity
  8
0
100
AcDbBlockEnd
  0
BLOCK
  5
40
330
3E
100
AcDbEntity
  8
0
100
AcDbBlockBegin
  2
block 2
 70
     0
 71
     0
 10
0.0
 20
0.0
 30
0.0
  3
block 2
  1

  0
POLYLINE
  5
42
330
3E
100
AcDbEntity
  8
Layer 1
370
     0
100
AcDb2dPolyline
 66
     1
 10
0.0
 20
0.0
 30
0.0
  0
VERTEX
  5
43
330
42
100
AcDbEntity
  8
Layer 1
370
     0
100
AcDbVertex
100
AcDb2dVertex
 10
3.562502349272383
 20
-5.750003791808057
 30
0.0
  0
VERTEX
  5
44
330
42
100
AcDbEntity
  8
Layer 1
370
     0
100
AcDbVertex
100
AcDb2dVertex
 10
0.5625003709377446
 20
-5.750003791808057
 30
0.0
  0
VERTEX
  5
45
330
42
100
AcDbEntity
  8
Layer 1
370
     0
100
AcDbVertex
100
AcDb2dVertex
 10
0.5625003709377446
 20
-2.750001813473419
 30
0.0
  0
VERTEX
  5
46
330
42
100
AcDbEntity
  8
Layer 1
370
     0
100
AcDbVertex
100
AcDb2dVertex
 10
3.562502349272383
 20
-2.750001813473419
 30
0.0
  0
VERTEX
  5
47
330
42
100
AcDbEntity
  8
Layer 1
370
     0
100
AcDbVertex
100
AcDb2dVertex
 10
3.562502349272383
 20
-5.750003791808057
 30
0.0
  0
SEQEND
  5
48
330
42
100
AcDbEntity
  8
Layer 1
370
     0
  0
HATCH
  5
49
330
3E
100
AcDbEntity
  8
Layer 1
 62
   178
420
        0
100
AcDbHatch
 10
0.0
 20
0.0
 30
0.0
210
0.0
220
0.0
230
1.0
  2
SOLID
 70
     1
 71
     0
 91
        1
 92
        1
 93
        4
 72
     1
 10
3.562502349272383
 20
-5.750003791808057
 11
0.5625003709377445
 21
-5.750003791808057
 72
     1
 10
0.5625003709377446
 20
-5.750003791808057
 11
0.5625003709377446
 21
-2.750001813473419
 72
     1
 10
0.5625003709377446
 20
-2.750001813473419
 11
3.562502349272383
 21
-2.750001813473419
 72
     1
 10
3.562502349272383
 20
-2.750001813473419
 11
3.562502349272383
 21
-5.750003791808057
 97
        0
 75
     2
 76
     1
 98
        0
  0
INSERT
  5
4B
330
3E
100
AcDbEntity
  8
Layer 1
100
AcDbBlockReference
  2
block 3
 10
0.0
 20
0.0
 30
0.0
  0
ENDBLK
  5
41
330
3E
100
AcDbEntity
  8
0
100
AcDbBlockEnd
  0
BLOCK
  5
4C
330
4A
100
AcDbEntity
  8
0
100
AcDbBlockBegin
  2
block 3
 70
     0
 71
     0
 10
0.0
 20
0.0
 30
0.0
  3
block 3
  1

  0
POLYLINE
  5
4E
330
4A
100
AcDbEntity
  8
Layer 1
 62
   179
420
  2301728
370
    35
100
AcDb2dPolyline
 66
     1
 10
0.0
 20
0.0
 30
0.0
  0
VERTEX
  5
4F
330
4E
100
AcDbEntity
  8
Layer 1
 62
   179
420
  2301728
370
    35
100
AcDbVertex
100
AcDb2dVertex
 10
3.562502349272383
 20
-5.666670403520984
 30
0.0
  0
VERTEX
  5
50
330
4E
100
AcDbEntity
  8
Layer 1
 62
   179
420
  2301728
370
    35
100
AcDbVertex
100
AcDb2dVertex
 10
3.562502349272383
 20
-5.750003791808057
 30
0.0
  0
VERTEX
  5
51
330
4E
100
AcDbEntity
  8
Layer 1
 62
   179
420
  2301728
370
    35
100
AcDbVertex
100
AcDb2dVertex
 10
3.47916896098531
 20
-5.750003791808057
 30
0.0
  0
SEQEND
  5
52
330
4E
100
AcDbEntity
  8
Layer 1
370
    35
  0
POLYLINE
  5
53
330
4A
100
AcDbEntity
  8
Layer 1
  6
AI-Linetype-1
 62
   179
420
  2301728
370
    35
100
AcDb2dPolyline
 66
     1
 10
0.0
 20
0.0
 30
0.0
  0
VERTEX
  5
54
330
53
100
AcDbEntity
  8
Layer 1
  6
AI-Linetype-1
 62
   179
420
  2301728
370
    35
100
AcDbVertex
100
AcDb2dVertex
 10
3.312502184411163
 20
-5.750003791808057
 30
0.0
  0
VERTEX
  5
55
330
53
100
AcDbEntity
  8
Layer 1
  6
AI-Linetype-1
 62
   179
420
  2301728
370
    35
100
AcDbVertex
100
AcDb2dVertex
 10
0.7291671475118913
 20
-5.750003791808057
 30
0.0
  0
SEQEND
  5
56
330
53
100
AcDbEntity
  8
Layer 1
  6
AI-Linetype-1
370
    35
  0
POLYLINE
  5
58
330
4A
100
AcDbEntity
  8
Layer 1
 62
   179
420
  2301728
370
    35
100
AcDb2dPolyline
 66
     1
 10
0.0
 20
0.0
 30
0.0
  0
VERTEX
  5
59
330
58
100
AcDbEntity
  8
Layer 1
 62
   179
420
  2301728
370
    35
100
AcDbVertex
100
AcDb2dVertex
 10
0.6458337592248179
 20
-5.750003791808057
 30
0.0
  0
VERTEX
  5
5A
330
58
100
AcDbEntity
  8
Layer 1
 62
   179
420
  2301728
370
    35
100
AcDbVertex
100
AcDb2dVertex
 10
0.5625003709377446
 20
-5.750003791808057
 30
0.0
  0
VERTEX
  5
5B
330
58
100
AcDbEntity
  8
Layer 1
 62
   179
420
  2301728
370
    35
100
AcDbVertex
100
AcDb2dVertex
 10
0.5625003709377446
 20
-5.666670403520984
 30
0.0
  0
SEQEND
  5
5C
330
58
100
AcDbEntity
  8
Layer 1
370
    35
  0
POLYLINE
  5
5D
330
4A
100
AcDbEntity
  8
Layer 1
  6
AI-Linetype-2
 62
   179
420
  2301728
370
    35
100
AcDb2dPolyline
 66
     1
 10
0.0
 20
0.0
 30
0.0
  0
VERTEX
  5
5E
330
5D
100
AcDbEntity
  8
Layer 1
  6
AI-Linetype-2
 62
   179
420
  2301728
370
    35
100
AcDbVertex
100
AcDb2dVertex
 10
0.5625003709377446
 20
-5.500003626946837
 30
0.0
  0
VERTEX
  5
5F
330
5D
100
AcDbEntity
  8
Layer 1
  6
AI-Linetype-2
 62
   179
420
  2301728
370
    35
100
AcDbVertex
100
AcDb2dVertex
 10
0.5625003709377446
 20
-2.916668590047565
 30
0.0
  0
SEQEND
  5
60
330
5D
100
AcDbEntity
  8
Layer 1
  6
AI-Linetype-2
370
    35
  0
POLYLINE
  5
62
330
4A
100
AcDbEntity
  8
Layer 1
 62
   179
420
  2301728
370
    35
100
AcDb2dPolyline
 66
     1
 10
0.0
 20
0.0
 30
0.0
  0
VERTEX
  5
63
330
62
100
AcDbEntity
  8
Layer 1
 62
   179
420
  2301728
370
    35
100
AcDbVertex
100
AcDb2dVertex
 10
0.5625003709377446
 20
-2.833335201760492
 30
0.0
  0
VERTEX
  5
64
330
62
100
AcDbEntity
  8
Layer 1
 62
   179
420
  2301728
370
    35
100
AcDbVertex
100
AcDb2dVertex
 10
0.5625003709377446
 20
-2.750001813473419
 30
0.0
  0
VERTEX
  5
65
330
62
100
AcDbEntity
  8
Layer 1
 62
   179
420
  2301728
370
    35
100
AcDbVertex
100
AcDb2dVertex
 10
0.6458337592248179
 20
-2.750001813473419
 30
0.0
  0
SEQEND
  5
66
330
62
100
AcDbEntity
  8
Layer 1
370
    35
  0
POLYLINE
  5
67
330
4A
100
AcDbEntity
  8
Layer 1
  6
AI-Linetype-3
 62
   179
420
  2301728
370
    35
100
AcDb2dPolyline
 66
     1
 10
0.0
 20
0.0
 30
0.0
  0
VERTEX
  5
68
330
67
100
AcDbEntity
  8
Layer 1
  6
AI-Linetype-3
 62
   179
420
  2301728
370
    35
100
AcDbVertex
100
AcDb2dVertex
 10
0.8125005357989645
 20
-2.750001813473419
 30
0.0
  0
VERTEX
  5
69
330
67
100
AcDbEntity
  8
Layer 1
  6
AI-Linetype-3
 62
   179
420
  2301728
370
    35
100
AcDbVertex
100
AcDb2dVertex
 10
3.395835572698236
 20
-2.750001813473419
 30
0.0
  0
SEQEND
  5
6A
330
67
100
AcDbEntity
  8
Layer 1
  6
AI-Linetype-3
370
    35
  0
POLYLINE
  5
6C
330
4A
100
AcDbEntity
  8
Layer 1
 62
   179
420
  2301728
370
    35
100
AcDb2dPolyline
 66
     1
 10
0.0
 20
0.0
 30
0.0
  0
VERTEX
  5
6D
330
6C
100
AcDbEntity
  8
Layer 1
 62
   179
420
  2301728
370
    35
100
AcDbVertex
100
AcDb2dVertex
 10
3.47916896098531
 20
-2.750001813473419
 30
0.0
  0
VERTEX
  5
6E
330
6C
100
AcDbEntity
  8
Layer 1
 62
   179
420
  2301728
370
    35
100
AcDbVertex
100
AcDb2dVertex
 10
3.562502349272383
 20
-2.750001813473419
 30
0.0
  0
VERTEX
  5
6F
330
6C
100
AcDbEntity
  8
Layer 1
 62
   179
420
  2301728
370
    35
100
AcDbVertex
100
AcDb2dVertex
 10
3.562502349272383
 20
-2.833335201760492
 30
0.0
  0
SEQEND
  5
70
330
6C
100
AcDbEntity
  8
Layer 1
370
    35
  0
POLYLINE
  5
71
330
4A
100
AcDbEntity
  8
Layer 1
  6
AI-Linetype-4
 62
   179
420
  2301728
370
    35
100
AcDb2dPolyline
 66
     1
 10
0.0
 20
0.0
 30
0.0
  0
VERTEX
  5
72
330
71
100
AcDbEntity
  8
Layer 1
  6
AI-Linetype-4
 62
   179
420
  2301728
370
    35
100
AcDbVertex
100
AcDb2dVertex
 10
3.562502349272383
 20
-3.000001978334638
 30
0.0
  0
VERTEX
  5
73
330
71
100
AcDbEntity
  8
Layer 1
  6
AI-Linetype-4
 62
   179
420
  2301728
370
    35
100
AcDbVertex
100
AcDb2dVertex
 10
3.562502349272383
 20
-5.58333701523391
 30
0.0
  0
SEQEND
  5
74
330
71
100
AcDbEntity
  8
Layer 1
  6
AI-Linetype-4
370
    35
  0
ENDBLK
  5
4D
330
4A
100
AcDbEntity
  8
0
100
AcDbBlockEnd
  0
BLOCK
  5
B2
330
B0
100
AcDbEntity
  8
0
100
AcDbBlockBegin
  2
block 4
 70
     0
 71
     0
 10
0.0
 20
0.0
 30
0.0
  3
block 4
  1

  0
INSERT
  5
B5
330
B0
100
AcDbEntity
  8
Layer 1
100
AcDbBlockReference
  2
block 5
 10
0.0
 20
0.0
 30
0.0
  0
ENDBLK
  5
B3
330
B0
100
AcDbEntity
  8
0
100
AcDbBlockEnd
  0
BLOCK
  5
B6
330
B4
100
AcDbEntity
  8
0
100
AcDbBlockBegin
  2
block 5
 70
     0
 71
     0
 10
0.0
 20
0.0
 30
0.0
  3
block 5
  1

  0
POLYLINE
  5
B8
330
B4
100
AcDbEntity
  8
Layer 1
 62
   179
420
  2301728
370
    50
100
AcDb2dPolyline
 66
     1
 10
0.0
 20
0.0
 30
0.0
  0
VERTEX
  5
B9
330
B8
100
AcDbEntity
  8
Layer 1
 62
   179
420
  2301728
370
    50
100
AcDbVertex
100
AcDb2dVertex
 10
7.352923685650231
 20
-5.750003791808057
 30
0.0
  0
VERTEX
  5
BA
330
B8
100
AcDbEntity
  8
Layer 1
 62
   179
420
  2301728
370
    50
100
AcDbVertex
100
AcDb2dVertex
 10
7.352923685650231
 20
-5.683855202179792
 30
0.0
  0
SEQEND
  5
BB
330
B8
100
AcDbEntity
  8
Layer 1
370
    50
  0
POLYLINE
  5
BC
330
B4
100
AcDbEntity
  8
Layer 1
  6
AI-Linetype-5
 62
   179
420
  2301728
370
    50
100
AcDb2dPolyline
 66
     1
 10
0.0
 20
0.0
 30
0.0
  0
VERTEX
  5
BD
330
BC
100
AcDbEntity
  8
Layer 1
  6
AI-Linetype-5
 62
   179
420
  2301728
370
    50
100
AcDbVertex
100
AcDb2dVertex
 10
7.352923685650231
 20
-5.548641896868296
 30
0.0
  0
VERTEX
  5
BE
330
BC
100
AcDbEntity
  8
Layer 1
  6
AI-Linetype-5
 62
   179
420
  2301728
370
    50
100
AcDbVertex
100
AcDb2dVertex
 10
7.352923685650231
 20
-3.993607505524089
 30
0.0
  0
SEQEND
  5
BF
330
BC
100
AcDbEntity
  8
Layer 1
  6
AI-Linetype-5
370
    50
  0
POLYLINE
  5
C1
330
B4
100
AcDbEntity
  8
Layer 1
 62
   179
420
  2301728
370
    50
100
AcDb2dPolyline
 66
     1
 10
0.0
 20
0.0
 30
0.0
  0
VERTEX
  5
C2
330
C1
100
AcDbEntity
  8
Layer 1
 62
   179
420
  2301728
370
    50
100
AcDbVertex
100
AcDb2dVertex
 10
7.352923685650231
 20
-3.926000852868341
 30
0.0
  0
VERTEX
  5
C3
330
C1
100
AcDbEntity
  8
Layer 1
 62
   179
420
  2301728
370
    50
100
AcDbVertex
100
AcDb2dVertex
 10
7.352923685650231
 20
-3.859852263240076
 30
0.0
  0
SEQEND
  5
C4
330
C1
100
AcDbEntity
  8
Layer 1
370
    50
  0
ENDBLK
  5
B7
330
B4
100
AcDbEntity
  8
0
100
AcDbBlockEnd
  0
BLOCK
  5
C7
330
C5
100
AcDbEntity
  8
0
100
AcDbBlockBegin
  2
block 6
 70
     0
 71
     0
 10
0.0
 20
0.0
 30
0.0
  3
block 6
  1

  0
INSERT
  5
CA
330
C5
100
AcDbEntity
  8
Layer 1
100
AcDbBlockReference
  2
block 7
 10
0.0
 20
0.0
 30
0.0
  0
ENDBLK
  5
C8
330
C5
100
AcDbEntity
  8
0
100
AcDbBlockEnd
  0
BLOCK
  5
CB
330
C9
100
AcDbEntity
  8
0
100
AcDbBlockBegin
  2
block 7
 70
     0
 71
     0
 10
0.0
 20
0.0
 30
0.0
  3
block 7
  1

  0
POLYLINE
  5
CD
330
C9
100
AcDbEntity
  8
Layer 1
 62
   179
420
  2301728
370
    50
100
AcDb2dPolyline
 66
     1
 10
0.0
 20
0.0
 30
0.0
  0
VERTEX
  5
CE
330
CD
100
AcDbEntity
  8
Layer 1
 62
   179
420
  2301728
370
    50
100
AcDbVertex
100
AcDb2dVertex
 10
6.396135945326871
 20
-5.750003791808057
 30
0.0
  0
VERTEX
  5
CF
330
CD
100
AcDbEntity
  8
Layer 1
 62
   179
420
  2301728
370
    50
100
AcDbVertex
100
AcDb2dVertex
 10
6.396135945326871
 20
-5.68405865283479
 30
0.0
  0
SEQEND
  5
D0
330
CD
100
AcDbEntity
  8
Layer 1
370
    50
  0
POLYLINE
  5
D1
330
C9
100
AcDbEntity
  8
Layer 1
  6
AI-Linetype-6
 62
   179
420
  2301728
370
    50
100
AcDb2dPolyline
 66
     1
 10
0.0
 20
0.0
 30
0.0
  0
VERTEX
  5
D2
330
D1
100
AcDbEntity
  8
Layer 1
  6
AI-Linetype-6
 62
   179
420
  2301728
370
    50
100
AcDbVertex
100
AcDb2dVertex
 10
6.396135945326871
 20
-5.549699840274284
 30
0.0
  0
VERTEX
  5
D3
330
D1
100
AcDbEntity
  8
Layer 1
  6
AI-Linetype-6
 62
   179
420
  2301728
370
    50
100
AcDbVertex
100
AcDb2dVertex
 10
6.396135945326871
 20
-4.004546369074467
 30
0.0
  0
SEQEND
  5
D4
330
D1
100
AcDbEntity
  8
Layer 1
  6
AI-Linetype-6
370
    50
  0
POLYLINE
  5
D6
330
C9
100
AcDbEntity
  8
Layer 1
 62
   179
420
  2301728
370
    50
100
AcDb2dPolyline
 66
     1
 10
0.0
 20
0.0
 30
0.0
  0
VERTEX
  5
D7
330
D6
100
AcDbEntity
  8
Layer 1
 62
   179
420
  2301728
370
    50
100
AcDbVertex
100
AcDb2dVertex
 10
6.396135945326871
 20
-3.937366962794214
 30
0.0
  0
VERTEX
  5
D8
330
D6
100
AcDbEntity
  8
Layer 1
 62
   179
420
  2301728
370
    50
100
AcDbVertex
100
AcDb2dVertex
 10
6.396135945326871
 20
-3.871421823820948
 30
0.0
  0
SEQEND
  5
D9
330
D6
100
AcDbEntity
  8
Layer 1
370
    50
  0
ENDBLK
  5
CC
330
C9
100
AcDbEntity
  8
0
100
AcDbBlockEnd
  0
BLOCK
  5
DC
330
DA
100
AcDbEntity
  8
0
100
AcDbBlockBegin
  2
block 8
 70
     0
 71
     0
 10
0.0
 20
0.0
 30
0.0
  3
block 8
  1

  0
INSERT
  5
DF
330
DA
100
AcDbEntity
  8
Layer 1
100
AcDbBlockReference
  2
block 9
 10
0.0
 20
0.0
 30
0.0
  0
ENDBLK
  5
DD
330
DA
100
AcDbEntity
  8
0
100
AcDbBlockEnd
  0
BLOCK
  5
E0
330
DE
100
AcDbEntity
  8
0
100
AcDbBlockBegin
  2
block 9
 70
     0
 71
     0
 10
0.0
 20
0.0
 30
0.0
  3
block 9
  1

  0
POLYLINE
  5
E2
330
DE
100
AcDbEntity
  8
Layer 1
 62
   178
420
        0
370
   211
100
AcDb2dPolyline
 66
     1
 10
0.0
 20
0.0
 30
0.0
  0
VERTEX
  5
E3
330
E2
100
AcDbEntity
  8
Layer 1
 62
   178
420
        0
370
   211
100
AcDbVertex
100
AcDb2dVertex
 10
10.17131204595689
 20
-2.750001813473419
 30
0.0
  0
VERTEX
  5
E4
330
E2
100
AcDbEntity
  8
Layer 1
 62
   178
420
        0
370
   211
100
AcDbVertex
100
AcDb2dVertex
 10
10.17131204595689
 20
-2.833335201760492
 30
0.0
  0
SEQEND
  5
E5
330
E2
100
AcDbEntity
  8
Layer 1
370
   211
  0
POLYLINE
  5
E6
330
DE
100
AcDbEntity
  8
Layer 1
  6
AI-Linetype-7
 62
   178
420
        0
370
   211
100
AcDb2dPolyline
 66
     1
 10
0.0
 20
0.0
 30
0.0
  0
VERTEX
  5
E7
330
E6
100
AcDbEntity
  8
Layer 1
  6
AI-Linetype-7
 62
   178
420
        0
370
   211
100
AcDbVertex
100
AcDb2dVertex
 10
10.17131204595689
 20
-3.000001978334638
 30
0.0
  0
VERTEX
  5
E8
330
E6
100
AcDbEntity
  8
Layer 1
  6
AI-Linetype-7
 62
   178
420
        0
370
   211
100
AcDbVertex
100
AcDb2dVertex
 10
10.17131204595689
 20
-5.58333701523391
 30
0.0
  0
SEQEND
  5
E9
330
E6
100
AcDbEntity
  8
Layer 1
  6
AI-Linetype-7
370
   211
  0
POLYLINE
  5
EB
330
DE
100
AcDbEntity
  8
Layer 1
 62
   178
420
        0
370
   211
100
AcDb2dPolyline
 66
     1
 10
0.0
 20
0.0
 30
0.0
  0
VERTEX
  5
EC
330
EB
100
AcDbEntity
  8
Layer 1
 62
   178
420
        0
370
   211
100
AcDbVertex
100
AcDb2dVertex
 10
10.17131204595689
 20
-5.666670403520984
 30
0.0
  0
VERTEX
  5
ED
330
EB
100
AcDbEntity
  8
Layer 1
 62
   178
420
        0
370
   211
100
AcDbVertex
100
AcDb2dVertex
 10
10.17131204595689
 20
-5.750003791808057
 30
0.0
  0
SEQEND
  5
EE
330
EB
100
AcDbEntity
  8
Layer 1
370
   211
  0
ENDBLK
  5
E1
330
DE
100
AcDbEntity
  8
0
100
AcDbBlockEnd
  0
BLOCK
  5
F1
330
EF
100
AcDbEntity
  8
0
100
AcDbBlockBegin
  2
block 10
 70
     0
 71
     0
 10
0.0
 20
0.0
 30
0.0
  3
block 10
  1

  0
INSERT
  5
F4
330
EF
100
AcDbEntity
  8
Layer 1
100
AcDbBlockReference
  2
block 11
 10
0.0
 20
0.0
 30
0.0
  0
ENDBLK
  5
F2
330
EF
100
AcDbEntity
  8
0
100
AcDbBlockEnd
  0
BLOCK
  5
F5
330
F3
100
AcDbEntity
  8
0
100
AcDbBlockBegin
  2
block 11
 70
     0
 71
     0
 10
0.0
 20
0.0
 30
0.0
  3
block 11
  1

  0
POLYLINE
  5
F7
330
F3
100
AcDbEntity
  8
Layer 1
 62
   178
420
        0
370
   211
100
AcDb2dPolyline
 66
     1
 10
0.0
 20
0.0
 30
0.0
  0
VERTEX
  5
F8
330
F7
100
AcDbEntity
  8
Layer 1
 62
   178
420
        0
370
   211
100
AcDbVertex
100
AcDb2dVertex
 10
3.562502349272383
 20
-2.750001813473419
 30
0.0
  0
VERTEX
  5
F9
330
F7
100
AcDbEntity
  8
Layer 1
 62
   178
420
        0
370
   211
100
AcDbVertex
100
AcDb2dVertex
 10
3.562502349272383
 20
-2.833335201760492
 30
0.0
  0
SEQEND
  5
FA
330
F7
100
AcDbEntity
  8
Layer 1
370
   211
  0
POLYLINE
  5
FB
330
F3
100
AcDbEntity
  8
Layer 1
  6
AI-Linetype-8
 62
   178
420
        0
370
   211
100
AcDb2dPolyline
 66
     1
 10
0.0
 20
0.0
 30
0.0
  0
VERTEX
  5
FC
330
FB
100
AcDbEntity
  8
Layer 1
  6
AI-Linetype-8
 62
   178
420
        0
370
   211
100
AcDbVertex
100
AcDb2dVertex
 10
3.562502349272383
 20
-3.000001978334638
 30
0.0
  0
VERTEX
  5
FD
330
FB
100
AcDbEntity
  8
Layer 1
  6
AI-Linetype-8
 62
   178
420
        0
370
   211
100
AcDbVertex
100
AcDb2dVertex
 10
3.562502349272383
 20
-5.58333701523391
 30
0.0
  0
SEQEND
  5
FE
330
FB
100
AcDbEntity
  8
Layer 1
  6
AI-Linetype-8
370
   211
  0
POLYLINE
  5
100
330
F3
100
AcDbEntity
  8
Layer 1
 62
   178
420
        0
370
   211
100
AcDb2dPolyline
 66
     1
 10
0.0
 20
0.0
 30
0.0
  0
VERTEX
  5
101
330
100
100
AcDbEntity
  8
Layer 1
 62
   178
420
        0
370
   211
100
AcDbVertex
100
AcDb2dVertex
 10
3.562502349272383
 20
-5.666670403520984
 30
0.0
  0
VERTEX
  5
102
330
100
100
AcDbEntity
  8
Layer 1
 62
   178
420
        0
370
   211
100
AcDbVertex
100
AcDb2dVertex
 10
3.562502349272383
 20
-5.750003791808057
 30
0.0
  0
SEQEND
  5
103
330
100
100
AcDbEntity
  8
Layer 1
370
   211
  0
ENDBLK
  5
F6
330
F3
100
AcDbEntity
  8
0
100
AcDbBlockEnd
  0
BLOCK
  5
106
330
104
100
AcDbEntity
  8
0
100
AcDbBlockBegin
  2
block 12
 70
     0
 71
     0
 10
0.0
 20
0.0
 30
0.0
  3
block 12
  1

  0
INSERT
  5
109
330
104
100
AcDbEntity
  8
Layer 1
100
AcDbBlockReference
  2
block 13
 10
0.0
 20
0.0
 30
0.0
  0
ENDBLK
  5
107
330
104
100
AcDbEntity
  8
0
100
AcDbBlockEnd
  0
BLOCK
  5
10A
330
108
100
AcDbEntity
  8
0
100
AcDbBlockBegin
  2
block 13
 70
     0
 71
     0
 10
0.0
 20
0.0
 30
0.0
  3
block 13
  1

  0
POLYLINE
  5
10C
330
108
100
AcDbEntity
  8
Layer 1
 62
   178
420
        0
370
   211
100
AcDb2dPolyline
 66
     1
 10
0.0
 20
0.0
 30
0.0
  0
VERTEX
  5
10D
330
10C
100
AcDbEntity
  8
Layer 1
 62
   178
420
        0
370
   211
100
AcDbVertex
100
AcDb2dVertex
 10
3.562502349272383
 20
-2.750001813473419
 30
0.0
  0
VERTEX
  5
10E
330
10C
100
AcDbEntity
  8
Layer 1
 62
   178
420
        0
370
   211
100
AcDbVertex
100
AcDb2dVertex
 10
3.47916896098531
 20
-2.750001813473419
 30
0.0
  0
SEQEND
  5
10F
330
10C
100
AcDbEntity
  8
Layer 1
370
   211
  0
POLYLINE
  5
110
330
108
100
AcDbEntity
  8
Layer 1
  6
AI-Linetype-9
 62
   178
420
        0
370
   211
100
AcDb2dPolyline
 66
     1
 10
0.0
 20
0.0
 30
0.0
  0
VERTEX
  5
111
330
110
100
AcDbEntity
  8
Layer 1
  6
AI-Linetype-9
 62
   178
420
        0
370
   211
100
AcDbVertex
100
AcDb2dVertex
 10
3.312502184411163
 20
-2.750001813473419
 30
0.0
  0
VERTEX
  5
112
330
110
100
AcDbEntity
  8
Layer 1
  6
AI-Linetype-9
 62
   178
420
        0
370
   211
100
AcDbVertex
100
AcDb2dVertex
 10
0.7291671475118913
 20
-2.750001813473419
 30
0.0
  0
SEQEND
  5
113
330
110
100
AcDbEntity
  8
Layer 1
  6
AI-Linetype-9
370
   211
  0
POLYLINE
  5
115
330
108
100
AcDbEntity
  8
Layer 1
 62
   178
420
        0
370
   211
100
AcDb2dPolyline
 66
     1
 10
0.0
 20
0.0
 30
0.0
  0
VERTEX
  5
116
330
115
100
AcDbEntity
  8
Layer 1
 62
   178
420
        0
370
   211
100
AcDbVertex
100
AcDb2dVertex
 10
0.6458337592248179
 20
-2.750001813473419
 30
0.0
  0
VERTEX
  5
117
330
115
100
AcDbEntity
  8
Layer 1
 62
   178
420
        0
370
   211
100
AcDbVertex
100
AcDb2dVertex
 10
0.5625003709377446
 20
-2.750001813473419
 30
0.0
  0
SEQEND
  5
118
330
115
100
AcDbEntity
  8
Layer 1
370
   211
  0
ENDBLK
  5
10B
330
108
100
AcDbEntity
  8
0
100
AcDbBlockEnd
  0
BLOCK
  5
11B
330
119
100
AcDbEntity
  8
0
100
AcDbBlockBegin
  2
block 14
 70
     0
 71
     0
 10
0.0
 20
0.0
 30
0.0
  3
block 14
  1

  0
INSERT
  5
11E
330
119
100
AcDbEntity
  8
Layer 1
100
AcDbBlockReference
  2
block 15
 10
0.0
 20
0.0
 30
0.0
  0
ENDBLK
  5
11C
330
119
100
AcDbEntity
  8
0
100
AcDbBlockEnd
  0
BLOCK
  5
11F
330
11D
100
AcDbEntity
  8
0
100
AcDbBlockBegin
  2
block 15
 70
     0
 71
     0
 10
0.0
 20
0.0
 30
0.0
  3
block 15
  1

  0
POLYLINE
  5
121
330
11D
100
AcDbEntity
  8
Layer 1
 62
   178
420
        0
370
   140
100
AcDb2dPolyline
 66
     1
 10
0.0
 20
0.0
 30
0.0
  0
VERTEX
  5
122
330
121
100
AcDbEntity
  8
Layer 1
 62
   178
420
        0
370
   140
100
AcDbVertex
100
AcDb2dVertex
 10
0.5625003709377446
 20
-2.717585342443779
 30
0.0
  0
VERTEX
  5
123
330
121
100
AcDbEntity
  8
Layer 1
 62
   178
420
        0
370
   140
100
AcDbVertex
100
AcDb2dVertex
 10
0.5625003709377446
 20
-2.680116513481695
 30
0.0
  0
SEQEND
  5
124
330
121
100
AcDbEntity
  8
Layer 1
370
   140
  0
POLYLINE
  5
125
330
11D
100
AcDbEntity
  8
Layer 1
  6
AI-Linetype-10
 62
   178
420
        0
370
   140
100
AcDb2dPolyline
 66
     1
 10
0.0
 20
0.0
 30
0.0
  0
VERTEX
  5
126
330
125
100
AcDbEntity
  8
Layer 1
  6
AI-Linetype-10
 62
   178
420
        0
370
   140
100
AcDbVertex
100
AcDb2dVertex
 10
0.5625003709377446
 20
-2.60418194734804
 30
0.0
  0
VERTEX
  5
127
330
125
100
AcDbEntity
  8
Layer 1
  6
AI-Linetype-10
 62
   178
420
        0
370
   140
100
AcDbVertex
100
AcDb2dVertex
 10
0.5625003709377446
 20
-2.186545224457184
 30
0.0
  0
SEQEND
  5
128
330
125
100
AcDbEntity
  8
Layer 1
  6
AI-Linetype-10
370
   140
  0
POLYLINE
  5
12A
330
11D
100
AcDbEntity
  8
Layer 1
 62
   178
420
        0
370
   140
100
AcDb2dPolyline
 66
     1
 10
0.0
 20
0.0
 30
0.0
  0
VERTEX
  5
12B
330
12A
100
AcDbEntity
  8
Layer 1
 62
   178
420
        0
370
   140
100
AcDbVertex
100
AcDb2dVertex
 10
0.5625003709377446
 20
-2.148581332234607
 30
0.0
  0
VERTEX
  5
12C
330
12A
100
AcDbEntity
  8
Layer 1
 62
   178
420
        0
370
   140
100
AcDbVertex
100
AcDb2dVertex
 10
0.5625003709377446
 20
-2.111112503272523
 30
0.0
  0
SEQEND
  5
12D
330
12A
100
AcDbEntity
  8
Layer 1
370
   140
  0
ENDBLK
  5
120
330
11D
100
AcDbEntity
  8
0
100
AcDbBlockEnd
  0
BLOCK
  5
130
330
12E
100
AcDbEntity
  8
0
100
AcDbBlockBegin
  2
block 16
 70
     0
 71
     0
 10
0.0
 20
0.0
 30
0.0
  3
block 16
  1

  0
INSERT
  5
133
330
12E
100
AcDbEntity
  8
Layer 1
100
AcDbBlockReference
  2
block 17
 10
0.0
 20
0.0
 30
0.0
  0
ENDBLK
  5
131
330
12E
100
AcDbEntity
  8
0
100
AcDbBlockEnd
  0
BLOCK
  5
134
330
132
100
AcDbEntity
  8
0
100
AcDbBlockBegin
  2
block 17
 70
     0
 71
     0
 10
0.0
 20
0.0
 30
0.0
  3
block 17
  1

  0
POLYLINE
  5
136
330
132
100
AcDbEntity
  8
Layer 1
 62
   178
420
        0
370
   140
100
AcDb2dPolyline
 66
     1
 10
0.0
 20
0.0
 30
0.0
  0
VERTEX
  5
137
330
136
100
AcDbEntity
  8
Layer 1
 62
   178
420
        0
370
   140
100
AcDbVertex
100
AcDb2dVertex
 10
3.560196575182408
 20
-2.717585342443779
 30
0.0
  0
VERTEX
  5
138
330
136
100
AcDbEntity
  8
Layer 1
 62
   178
420
        0
370
   140
100
AcDbVertex
100
AcDb2dVertex
 10
3.560196575182408
 20
-2.680116513481695
 30
0.0
  0
SEQEND
  5
139
330
136
100
AcDbEntity
  8
Layer 1
370
   140
  0
POLYLINE
  5
13A
330
132
100
AcDbEntity
  8
Layer 1
  6
AI-Linetype-11
 62
   178
420
        0
370
   140
100
AcDb2dPolyline
 66
     1
 10
0.0
 20
0.0
 30
0.0
  0
VERTEX
  5
13B
330
13A
100
AcDbEntity
  8
Layer 1
  6
AI-Linetype-11
 62
   178
420
        0
370
   140
100
AcDbVertex
100
AcDb2dVertex
 10
3.560196575182408
 20
-2.60418194734804
 30
0.0
  0
VERTEX
  5
13C
330
13A
100
AcDbEntity
  8
Layer 1
  6
AI-Linetype-11
 62
   178
420
        0
370
   140
100
AcDbVertex
100
AcDb2dVertex
 10
3.560196575182408
 20
-2.186545224457184
 30
0.0
  0
SEQEND
  5
13D
330
13A
100
AcDbEntity
  8
Layer 1
  6
AI-Linetype-11
370
   140
  0
POLYLINE
  5
13F
330
132
100
AcDbEntity
  8
Layer 1
 62
   178
420
        0
370
   140
100
AcDb2dPolyline
 66
     1
 10
0.0
 20
0.0
 30
0.0
  0
VERTEX
  5
140
330
13F
100
AcDbEntity
  8
Layer 1
 62
   178
420
        0
370
   140
100
AcDbVertex
100
AcDb2dVertex
 10
3.560196575182408
 20
-2.148581332234607
 30
0.0
  0
VERTEX
  5
141
330
13F
100
AcDbEntity
  8
Layer 1
 62
   178
420
        0
370
   140
100
AcDbVertex
100
AcDb2dVertex
 10
3.560196575182408
 20
-2.111112503272523
 30
0.0
  0
SEQEND
  5
142
330
13F
100
AcDbEntity
  8
Layer 1
370
   140
  0
ENDBLK
  5
135
330
132
100
AcDbEntity
  8
0
100
AcDbBlockEnd
  0
BLOCK
  5
145
330
143
100
AcDbEntity
  8
0
100
AcDbBlockBegin
  2
block 18
 70
     0
 71
     0
 10
0.0
 20
0.0
 30
0.0
  3
block 18
  1

  0
INSERT
  5
148
330
143
100
AcDbEntity
  8
Layer 1
100
AcDbBlockReference
  2
block 19
 10
0.0
 20
0.0
 30
0.0
  0
ENDBLK
  5
146
330
143
100
AcDbEntity
  8
0
100
AcDbBlockEnd
  0
BLOCK
  5
149
330
147
100
AcDbEntity
  8
0
100
AcDbBlockBegin
  2
block 19
 70
     0
 71
     0
 10
0.0
 20
0.0
 30
0.0
  3
block 19
  1

  0
POLYLINE
  5
14B
330
147
100
AcDbEntity
  8
Layer 1
 62
   178
420
        0
370
   140
100
AcDb2dPolyline
 66
     1
 10
0.0
 20
0.0
 30
0.0
  0
VERTEX
  5
14C
330
14B
100
AcDbEntity
  8
Layer 1
 62
   178
420
        0
370
   140
100
AcDbVertex
100
AcDb2dVertex
 10
3.560196575182408
 20
-6.372684866494132
 30
0.0
  0
VERTEX
  5
14D
330
14B
100
AcDbEntity
  8
Layer 1
 62
   178
420
        0
370
   140
100
AcDbVertex
100
AcDb2dVertex
 10
3.560196575182408
 20
-6.335209255843549
 30
0.0
  0
SEQEND
  5
14E
330
14B
100
AcDbEntity
  8
Layer 1
370
   140
  0
POLYLINE
  5
14F
330
147
100
AcDbEntity
  8
Layer 1
  6
AI-Linetype-12
 62
   178
420
        0
370
   140
100
AcDb2dPolyline
 66
     1
 10
0.0
 20
0.0
 30
0.0
  0
VERTEX
  5
150
330
14F
100
AcDbEntity
  8
Layer 1
  6
AI-Linetype-12
 62
   178
420
        0
370
   140
100
AcDbVertex
100
AcDb2dVertex
 10
3.560196575182408
 20
-6.259281471398393
 30
0.0
  0
VERTEX
  5
151
330
14F
100
AcDbEntity
  8
Layer 1
  6
AI-Linetype-12
 62
   178
420
        0
370
   140
100
AcDbVertex
100
AcDb2dVertex
 10
3.560196575182408
 20
-5.841637966819038
 30
0.0
  0
SEQEND
  5
152
330
14F
100
AcDbEntity
  8
Layer 1
  6
AI-Linetype-12
370
   140
  0
POLYLINE
  5
154
330
147
100
AcDbEntity
  8
Layer 1
 62
   178
420
        0
370
   140
100
AcDb2dPolyline
 66
     1
 10
0.0
 20
0.0
 30
0.0
  0
VERTEX
  5
155
330
154
100
AcDbEntity
  8
Layer 1
 62
   178
420
        0
370
   140
100
AcDbVertex
100
AcDb2dVertex
 10
3.560196575182408
 20
-5.80368763797346
 30
0.0
  0
VERTEX
  5
156
330
154
100
AcDbEntity
  8
Layer 1
 62
   178
420
        0
370
   140
100
AcDbVertex
100
AcDb2dVertex
 10
3.560196575182408
 20
-5.766212027322876
 30
0.0
  0
SEQEND
  5
157
330
154
100
AcDbEntity
  8
Layer 1
370
   140
  0
ENDBLK
  5
14A
330
147
100
AcDbEntity
  8
0
100
AcDbBlockEnd
  0
BLOCK
  5
15A
330
158
100
AcDbEntity
  8
0
100
AcDbBlockBegin
  2
block 20
 70
     0
 71
     0
 10
0.0
 20
0.0
 30
0.0
  3
block 20
  1

  0
INSERT
  5
15D
330
158
100
AcDbEntity
  8
Layer 1
100
AcDbBlockReference
  2
block 21
 10
0.0
 20
0.0
 30
0.0
  0
ENDBLK
  5
15B
330
158
100
AcDbEntity
  8
0
100
AcDbBlockEnd
  0
BLOCK
  5
15E
330
15C
100
AcDbEntity
  8
0
100
AcDbBlockBegin
  2
block 21
 70
     0
 71
     0
 10
0.0
 20
0.0
 30
0.0
  3
block 21
  1

  0
POLYLINE
  5
160
330
15C
100
AcDbEntity
  8
Layer 1
 62
   178
420
        0
370
   140
100
AcDb2dPolyline
 66
     1
 10
0.0
 20
0.0
 30
0.0
  0
VERTEX
  5
161
330
160
100
AcDbEntity
  8
Layer 1
 62
   178
420
        0
370
   140
100
AcDbVertex
100
AcDb2dVertex
 10
0.5625003709377446
 20
-6.372684866494132
 30
0.0
  0
VERTEX
  5
162
330
160
100
AcDbEntity
  8
Layer 1
 62
   178
420
        0
370
   140
100
AcDbVertex
100
AcDb2dVertex
 10
0.5625003709377446
 20
-6.335209255843549
 30
0.0
  0
SEQEND
  5
163
330
160
100
AcDbEntity
  8
Layer 1
370
   140
  0
POLYLINE
  5
164
330
15C
100
AcDbEntity
  8
Layer 1
  6
AI-Linetype-13
 62
   178
420
        0
370
   140
100
AcDb2dPolyline
 66
     1
 10
0.0
 20
0.0
 30
0.0
  0
VERTEX
  5
165
330
164
100
AcDbEntity
  8
Layer 1
  6
AI-Linetype-13
 62
   178
420
        0
370
   140
100
AcDbVertex
100
AcDb2dVertex
 10
0.5625003709377446
 20
-6.259281471398393
 30
0.0
  0
VERTEX
  5
166
330
164
100
AcDbEntity
  8
Layer 1
  6
AI-Linetype-13
 62
   178
420
        0
370
   140
100
AcDbVertex
100
AcDb2dVertex
 10
0.5625003709377446
 20
-5.841637966819038
 30
0.0
  0
SEQEND
  5
167
330
164
100
AcDbEntity
  8
Layer 1
  6
AI-Linetype-13
370
   140
  0
POLYLINE
  5
169
330
15C
100
AcDbEntity
  8
Layer 1
 62
   178
420
        0
370
   140
100
AcDb2dPolyline
 66
     1
 10
0.0
 20
0.0
 30
0.0
  0
VERTEX
  5
16A
330
169
100
AcDbEntity
  8
Layer 1
 62
   178
420
        0
370
   140
100
AcDbVertex
100
AcDb2dVertex
 10
0.5625003709377446
 20
-5.80368763797346
 30
0.0
  0
VERTEX
  5
16B
330
169
100
AcDbEntity
  8
Layer 1
 62
   178
420
        0
370
   140
100
AcDbVertex
100
AcDb2dVertex
 10
0.5625003709377446
 20
-5.766212027322876
 30
0.0
  0
SEQEND
  5
16C
330
169
100
AcDbEntity
  8
Layer 1
370
   140
  0
ENDBLK
  5
15F
330
15C
100
AcDbEntity
  8
0
100
AcDbBlockEnd
  0
BLOCK
  5
16F
330
16D
100
AcDbEntity
  8
0
100
AcDbBlockBegin
  2
block 22
 70
     0
 71
     0
 10
0.0
 20
0.0
 30
0.0
  3
block 22
  1

  0
INSERT
  5
172
330
16D
100
AcDbEntity
  8
Layer 1
100
AcDbBlockReference
  2
block 23
 10
0.0
 20
0.0
 30
0.0
  0
ENDBLK
  5
170
330
16D
100
AcDbEntity
  8
0
100
AcDbBlockEnd
  0
BLOCK
  5
173
330
171
100
AcDbEntity
  8
0
100
AcDbBlockBegin
  2
block 23
 70
     0
 71
     0
 10
0.0
 20
0.0
 30
0.0
  3
block 23
  1

  0
POLYLINE
  5
175
330
171
100
AcDbEntity
  8
Layer 1
 62
   178
420
        0
370
   211
100
AcDb2dPolyline
 66
     1
 10
0.0
 20
0.0
 30
0.0
  0
VERTEX
  5
176
330
175
100
AcDbEntity
  8
Layer 1
 62
   178
420
        0
370
   211
100
AcDbVertex
100
AcDb2dVertex
 10
3.562502349272383
 20
-5.750003791808057
 30
0.0
  0
VERTEX
  5
177
330
175
100
AcDbEntity
  8
Layer 1
 62
   178
420
        0
370
   211
100
AcDbVertex
100
AcDb2dVertex
 10
3.47916896098531
 20
-5.750003791808057
 30
0.0
  0
SEQEND
  5
178
330
175
100
AcDbEntity
  8
Layer 1
370
   211
  0
POLYLINE
  5
179
330
171
100
AcDbEntity
  8
Layer 1
  6
AI-Linetype-14
 62
   178
420
        0
370
   211
100
AcDb2dPolyline
 66
     1
 10
0.0
 20
0.0
 30
0.0
  0
VERTEX
  5
17A
330
179
100
AcDbEntity
  8
Layer 1
  6
AI-Linetype-14
 62
   178
420
        0
370
   211
100
AcDbVertex
100
AcDb2dVertex
 10
3.312502184411163
 20
-5.750003791808057
 30
0.0
  0
VERTEX
  5
17B
330
179
100
AcDbEntity
  8
Layer 1
  6
AI-Linetype-14
 62
   178
420
        0
370
   211
100
AcDbVertex
100
AcDb2dVertex
 10
0.7291671475118913
 20
-5.750003791808057
 30
0.0
  0
SEQEND
  5
17C
330
179
100
AcDbEntity
  8
Layer 1
  6
AI-Linetype-14
370
   211
  0
POLYLINE
  5
17E
330
171
100
AcDbEntity
  8
Layer 1
 62
   178
420
        0
370
   211
100
AcDb2dPolyline
 66
     1
 10
0.0
 20
0.0
 30
0.0
  0
VERTEX
  5
17F
330
17E
100
AcDbEntity
  8
Layer 1
 62
   178
420
        0
370
   211
100
AcDbVertex
100
AcDb2dVertex
 10
0.6458337592248179
 20
-5.750003791808057
 30
0.0
  0
VERTEX
  5
180
330
17E
100
AcDbEntity
  8
Layer 1
 62
   178
420
        0
370
   211
100
AcDbVertex
100
AcDb2dVertex
 10
0.5625003709377446
 20
-5.750003791808057
 30
0.0
  0
SEQEND
  5
181
330
17E
100
AcDbEntity
  8
Layer 1
370
   211
  0
ENDBLK
  5
174
330
171
100
AcDbEntity
  8
0
100
AcDbBlockEnd
  0
BLOCK
  5
188
330
186
100
AcDbEntity
  8
0
100
AcDbBlockBegin
  2
block 24
 70
     0
 71
     0
 10
0.0
 20
0.0
 30
0.0
  3
block 24
  1

  0
POLYLINE
  5
18A
330
186
100
AcDbEntity
  8
Layer 1
370
     0
100
AcDb2dPolyline
 66
     1
 10
0.0
 20
0.0
 30
0.0
  0
VERTEX
  5
18B
330
18A
100
AcDbEntity
  8
Layer 1
370
     0
100
AcDbVertex
100
AcDb2dVertex
 10
10.50768379555315
 20
-4.135975492203006
 30
0.0
  0
VERTEX
  5
18C
330
18A
100
AcDbEntity
  8
Layer 1
370
     0
100
AcDbVertex
100
AcDb2dVertex
 10
10.49603285471028
 20
-4.171287744222113
 30
0.0
  0
VERTEX
  5
18D
330
18A
100
AcDbEntity
  8
Layer 1
370
     0
100
AcDbVertex
100
AcDb2dVertex
 10
10.48104532312544
 20
-4.171287744222113
 30
0.0
  0
VERTEX
  5
18E
330
18A
100
AcDbEntity
  8
Layer 1
370
     0
100
AcDbVertex
100
AcDb2dVertex
 10
10.51918553924902
 20
-4.059016891105862
 30
0.0
  0
VERTEX
  5
18F
330
18A
100
AcDbEntity
  8
Layer 1
370
     0
100
AcDbVertex
100
AcDb2dVertex
 10
10.53668229557883
 20
-4.059016891105862
 30
0.0
  0
VERTEX
  5
190
330
18A
100
AcDbEntity
  8
Layer 1
370
     0
100
AcDbVertex
100
AcDb2dVertex
 10
10.5749852722264
 20
-4.171287744222113
 30
0.0
  0
VERTEX
  5
191
330
18A
100
AcDbEntity
  8
Layer 1
370
     0
100
AcDbVertex
100
AcDb2dVertex
 10
10.55949589569257
 20
-4.171287744222113
 30
0.0
  0
VERTEX
  5
192
330
18A
100
AcDbEntity
  8
Layer 1
370
     0
100
AcDbVertex
100
AcDb2dVertex
 10
10.54750587042471
 20
-4.135975492203006
 30
0.0
  0
VERTEX
  5
193
330
18A
100
AcDbEntity
  8
Layer 1
370
     0
100
AcDbVertex
100
AcDb2dVertex
 10
10.50768379555315
 20
-4.135975492203006
 30
0.0
  0
SEQEND
  5
194
330
18A
100
AcDbEntity
  8
Layer 1
370
     0
  0
SPLINE
  5
195
330
186
100
AcDbEntity
  8
Layer 1
370
     0
100
AcDbSpline
210
0.0
220
0.0
230
1.0
 70
    11
 71
     3
 72
    23
 73
    19
 74
     0
 42
0.0000000001
 43
0.0000000001
 40
0.0
 40
0.0
 40
0.0
 40
0.0
 40
1.0
 40
1.0
 40
1.0
 40
2.0
 40
2.0
 40
2.0
 40
3.0
 40
3.0
 40
3.0
 40
4.0
 40
4.0
 40
4.0
 40
5.0
 40
5.0
 40
5.0
 40
6.0
 40
6.0
 40
6.0
 40
6.0
 10
10.54449480073074
 20
-4.124643290719631
 30
0.0
 10
10.54449480073074
 20
-4.124643290719631
 30
0.0
 10
10.53350846536086
 20
-4.092328545017491
 30
0.0
 10
10.53350846536086
 20
-4.092328545017491
 30
0.0
 10
10.53101280399289
 20
-4.085004321437572
 30
0.0
 10
10.52934450862191
 20
-4.078337921642146
 30
0.0
 10
10.52767621325093
 20
-4.071841064059218
 30
0.0
 10
10.52767621325093
 20
-4.071841064059218
 30
0.0
 10
10.52735069220293
 20
-4.071841064059218
 30
0.0
 10
10.52735069220293
 20
-4.071841064059218
 30
0.0
 10
10.52568239683195
 20
-4.078507463854645
 30
0.0
 10
10.52385134093697
 20
-4.085336624174069
 30
0.0
 10
10.52168120061699
 20
-4.092165784493493
 30
0.0
 10
10.52168120061699
 20
-4.092165784493493
 30
0.0
 10
10.51069486524711
 20
-4.124643290719631
 30
0.0
 10
10.51069486524711
 20
-4.124643290719631
 30
0.0
 10
10.51069486524711
 20
-4.124643290719631
 30
0.0
 10
10.54449480073074
 20
-4.124643290719631
 30
0.0
 10
10.54449480073074
 20
-4.124643290719631
 30
0.0
  0
HATCH
  5
196
330
186
100
AcDbEntity
  8
Layer 1
 62
   179
420
  2301728
100
AcDbHatch
 10
0.0
 20
0.0
 30
0.0
210
0.0
220
0.0
230
1.0
  2
SOLID
 70
     1
 71
     0
 91
        2
 92
        1
 93
        8
 72
     1
 10
10.50768379555315
 20
-4.135975492203006
 11
10.49603285471028
 21
-4.171287744222113
 72
     1
 10
10.49603285471028
 20
-4.171287744222113
 11
10.48104532312544
 21
-4.171287744222113
 72
     1
 10
10.48104532312544
 20
-4.171287744222113
 11
10.51918553924902
 21
-4.059016891105862
 72
     1
 10
10.51918553924902
 20
-4.059016891105862
 11
10.53668229557883
 21
-4.059016891105862
 72
     1
 10
10.53668229557883
 20
-4.059016891105862
 11
10.5749852722264
 21
-4.171287744222113
 72
     1
 10
10.5749852722264
 20
-4.171287744222113
 11
10.55949589569257
 21
-4.171287744222113
 72
     1
 10
10.55949589569257
 20
-4.171287744222113
 11
10.54750587042471
 21
-4.135975492203006
 72
     1
 10
10.54750587042471
 20
-4.135975492203006
 11
10.50768379555315
 21
-4.135975492203006
 97
        0
 92
        1
 93
        1
 72
     4
 94
        3
 73
     0
 74
     1
 95
       23
 96
       19
 40
0.0
 40
0.0
 40
0.0
 40
0.0
 40
1.0
 40
1.0
 40
1.0
 40
2.0
 40
2.0
 40
2.0
 40
3.0
 40
3.0
 40
3.0
 40
4.0
 40
4.0
 40
4.0
 40
5.0
 40
5.0
 40
5.0
 40
6.0
 40
6.0
 40
6.0
 40
6.0
 10
10.54449480073074
 20
-4.124643290719631
 10
10.54449480073074
 20
-4.124643290719631
 10
10.53350846536086
 20
-4.092328545017491
 10
10.53350846536086
 20
-4.092328545017491
 10
10.53101280399289
 20
-4.085004321437572
 10
10.52934450862191
 20
-4.078337921642146
 10
10.52767621325093
 20
-4.071841064059218
 10
10.52767621325093
 20
-4.071841064059218
 10
10.52735069220293
 20
-4.071841064059218
 10
10.52735069220293
 20
-4.071841064059218
 10
10.52568239683195
 20
-4.078507463854645
 10
10.52385134093697
 20
-4.085336624174069
 10
10.52168120061699
 20
-4.092165784493493
 10
10.52168120061699
 20
-4.092165784493493
 10
10.51069486524711
 20
-4.124643290719631
 10
10.51069486524711
 20
-4.124643290719631
 10
10.51069486524711
 20
-4.124643290719631
 10
10.54449480073074
 20
-4.124643290719631
 10
10.54449480073074
 20
-4.124643290719631
 97
        0
 75
     2
 76
     1
 98
        0
  0
ENDBLK
  5
189
330
186
100
AcDbEntity
  8
0
100
AcDbBlockEnd
  0
BLOCK
  5
199
330
197
100
AcDbEntity
  8
0
100
AcDbBlockBegin
  2
block 25
 70
     0
 71
     0
 10
0.0
 20
0.0
 30
0.0
  3
block 25
  1

  0
SPLINE
  5
19B
330
197
100
AcDbEntity
  8
Layer 1
370
     0
100
AcDbSpline
210
0.0
220
0.0
230
1.0
 70
    11
 71
     3
 72
    35
 73
    31
 74
     0
 42
0.0000000001
 43
0.0000000001
 40
0.0
 40
0.0
 40
0.0
 40
0.0
 40
1.0
 40
1.0
 40
1.0
 40
2.0
 40
2.0
 40
2.0
 40
3.0
 40
3.0
 40
3.0
 40
4.0
 40
4.0
 40
4.0
 40
5.0
 40
5.0
 40
5.0
 40
6.0
 40
6.0
 40
6.0
 40
7.0
 40
7.0
 40
7.0
 40
8.0
 40
8.0
 40
8.0
 40
9.0
 40
9.0
 40
9.0
 40
10.0
 40
10.0
 40
10.0
 40
10.0
 10
9.933980075213528
 20
-2.944799033945252
 30
0.0
 10
9.940300608895457
 20
-2.943463041310767
 30
0.0
 10
9.950310381121346
 20
-2.942466133101278
 30
0.0
 10
9.960455787117233
 20
-2.942466133101278
 30
0.0
 10
9.974955037130073
 20
-2.942466133101278
 30
0.0
 10
9.98428664050597
 20
-2.94496179446925
 30
0.0
 10
9.991271779660892
 20
-2.950631286055187
 30
0.0
 10
9.997104031770826
 20
-2.954958003318139
 30
0.0
 10
10.00060338303679
 20
-2.961624403113565
 30
0.0
 10
10.00060338303679
 20
-2.970454161540467
 30
0.0
 10
10.00060338303679
 20
-2.981277736386347
 30
0.0
 10
9.993441919980867
 20
-2.990772100286241
 30
0.0
 10
9.981614655237
 20
-2.995105599237692
 30
0.0
 10
9.981614655237
 20
-2.995105599237692
 30
0.0
 10
9.981614655237
 20
-2.995437901974189
 30
0.0
 10
9.981614655237
 20
-2.995437901974189
 30
0.0
 10
9.99227546955888
 20
-2.998103105554659
 30
0.0
 10
10.00478090315274
 20
-3.006932863981561
 30
0.0
 10
10.00478090315274
 20
-3.023588690937376
 30
0.0
 10
10.00478090315274
 20
-3.033252597049768
 30
0.0
 10
10.00094246746178
 20
-3.040576820629687
 30
0.0
 10
9.995286539252847
 20
-3.046076770003126
 30
0.0
 10
9.987446907346934
 20
-3.053238233059046
 30
0.0
 10
9.974792276606074
 20
-3.056568042112509
 30
0.0
 10
9.956468154279278
 20
-3.056568042112509
 30
0.0
 10
9.946471945430389
 20
-3.056568042112509
 30
0.0
 10
9.938808637425474
 20
-3.055903436639516
 30
0.0
 10
9.933980075213528
 20
-3.055238831166524
 30
0.0
 10
9.933980075213528
 20
-3.055238831166524
 30
0.0
 10
9.933980075213528
 20
-2.944799033945252
 30
0.0
 10
9.933980075213528
 20
-2.944799033945252
 30
0.0
  0
SPLINE
  5
19C
330
197
100
AcDbEntity
  8
Layer 1
370
     0
100
AcDbSpline
210
0.0
220
0.0
230
1.0
 70
    11
 71
     3
 72
    20
 73
    16
 74
     0
 42
0.0000000001
 43
0.0000000001
 40
0.0
 40
0.0
 40
0.0
 40
0.0
 40
1.0
 40
1.0
 40
1.0
 40
2.0
 40
2.0
 40
2.0
 40
3.0
 40
3.0
 40
3.0
 40
4.0
 40
4.0
 40
4.0
 40
5.0
 40
5.0
 40
5.0
 40
5.0
 10
9.948465761849366
 20
-2.990772100286241
 30
0.0
 10
9.948465761849366
 20
-2.990772100286241
 30
0.0
 10
9.96162223753922
 20
-2.990772100286241
 30
0.0
 10
9.96162223753922
 20
-2.990772100286241
 30
0.0
 10
9.97694885354905
 20
-2.990772100286241
 30
0.0
 10
9.98595493587695
 20
-2.98277648954483
 30
0.0
 10
9.98595493587695
 20
-2.97195291469895
 30
0.0
 10
9.98595493587695
 20
-2.958789657320597
 30
0.0
 10
9.975958727028061
 20
-2.953628792372154
 30
0.0
 10
9.961296716491225
 20
-2.953628792372154
 30
0.0
 10
9.954637098384298
 20
-2.953628792372154
 30
0.0
 10
9.950798662693341
 20
-2.954123855632648
 30
0.0
 10
9.948465761849366
 20
-2.954625700581643
 30
0.0
 10
9.948465761849366
 20
-2.954625700581643
 30
0.0
 10
9.948465761849366
 20
-2.990772100286241
 30
0.0
 10
9.948465761849366
 20
-2.990772100286241
 30
0.0
  0
SPLINE
  5
19D
330
197
100
AcDbEntity
  8
Layer 1
370
     0
100
AcDbSpline
210
0.0
220
0.0
230
1.0
 70
    11
 71
     3
 72
    20
 73
    16
 74
     0
 42
0.0000000001
 43
0.0000000001
 40
0.0
 40
0.0
 40
0.0
 40
0.0
 40
1.0
 40
1.0
 40
1.0
 40
2.0
 40
2.0
 40
2.0
 40
3.0
 40
3.0
 40
3.0
 40
4.0
 40
4.0
 40
4.0
 40
5.0
 40
5.0
 40
5.0
 40
5.0
 10
9.948465761849366
 20
-3.044578016844643
 30
0.0
 10
9.951300507642335
 20
-3.045079861793637
 30
0.0
 10
9.95546446438129
 20
-3.045242622317635
 30
0.0
 10
9.960632111018231
 20
-3.045242622317635
 30
0.0
 10
9.975619642603066
 20
-3.045242622317635
 30
0.0
 10
9.98945428714291
 20
-3.039749454632696
 30
0.0
 10
9.98945428714291
 20
-3.023419148724878
 30
0.0
 10
9.98945428714291
 20
-3.008099314403548
 30
0.0
 10
9.976297811453058
 20
-3.001765217344619
 30
0.0
 10
9.960455787117233
 20
-3.001765217344619
 30
0.0
 10
9.960455787117233
 20
-3.001765217344619
 30
0.0
 10
9.948465761849366
 20
-3.001765217344619
 30
0.0
 10
9.948465761849366
 20
-3.001765217344619
 30
0.0
 10
9.948465761849366
 20
-3.001765217344619
 30
0.0
 10
9.948465761849366
 20
-3.044578016844643
 30
0.0
 10
9.948465761849366
 20
-3.044578016844643
 30
0.0
  0
HATCH
  5
19E
330
197
100
AcDbEntity
  8
Layer 1
 62
   179
420
  2301728
100
AcDbHatch
 10
0.0
 20
0.0
 30
0.0
210
0.0
220
0.0
230
1.0
  2
SOLID
 70
     1
 71
     0
 91
        3
 92
        1
 93
        1
 72
     4
 94
        3
 73
     0
 74
     1
 95
       35
 96
       31
 40
0.0
 40
0.0
 40
0.0
 40
0.0
 40
1.0
 40
1.0
 40
1.0
 40
2.0
 40
2.0
 40
2.0
 40
3.0
 40
3.0
 40
3.0
 40
4.0
 40
4.0
 40
4.0
 40
5.0
 40
5.0
 40
5.0
 40
6.0
 40
6.0
 40
6.0
 40
7.0
 40
7.0
 40
7.0
 40
8.0
 40
8.0
 40
8.0
 40
9.0
 40
9.0
 40
9.0
 40
10.0
 40
10.0
 40
10.0
 40
10.0
 10
9.933980075213528
 20
-2.944799033945252
 10
9.940300608895457
 20
-2.943463041310767
 10
9.950310381121346
 20
-2.942466133101278
 10
9.960455787117233
 20
-2.942466133101278
 10
9.974955037130073
 20
-2.942466133101278
 10
9.98428664050597
 20
-2.94496179446925
 10
9.991271779660892
 20
-2.950631286055187
 10
9.997104031770826
 20
-2.954958003318139
 10
10.00060338303679
 20
-2.961624403113565
 10
10.00060338303679
 20
-2.970454161540467
 10
10.00060338303679
 20
-2.981277736386347
 10
9.993441919980867
 20
-2.990772100286241
 10
9.981614655237
 20
-2.995105599237692
 10
9.981614655237
 20
-2.995105599237692
 10
9.981614655237
 20
-2.995437901974189
 10
9.981614655237
 20
-2.995437901974189
 10
9.99227546955888
 20
-2.998103105554659
 10
10.00478090315274
 20
-3.006932863981561
 10
10.00478090315274
 20
-3.023588690937376
 10
10.00478090315274
 20
-3.033252597049768
 10
10.00094246746178
 20
-3.040576820629687
 10
9.995286539252847
 20
-3.046076770003126
 10
9.987446907346934
 20
-3.053238233059046
 10
9.974792276606074
 20
-3.056568042112509
 10
9.956468154279278
 20
-3.056568042112509
 10
9.946471945430389
 20
-3.056568042112509
 10
9.938808637425474
 20
-3.055903436639516
 10
9.933980075213528
 20
-3.055238831166524
 10
9.933980075213528
 20
-3.055238831166524
 10
9.933980075213528
 20
-2.944799033945252
 10
9.933980075213528
 20
-2.944799033945252
 97
        0
 92
        1
 93
        1
 72
     4
 94
        3
 73
     0
 74
     1
 95
       20
 96
       16
 40
0.0
 40
0.0
 40
0.0
 40
0.0
 40
1.0
 40
1.0
 40
1.0
 40
2.0
 40
2.0
 40
2.0
 40
3.0
 40
3.0
 40
3.0
 40
4.0
 40
4.0
 40
4.0
 40
5.0
 40
5.0
 40
5.0
 40
5.0
 10
9.948465761849366
 20
-2.990772100286241
 10
9.948465761849366
 20
-2.990772100286241
 10
9.96162223753922
 20
-2.990772100286241
 10
9.96162223753922
 20
-2.990772100286241
 10
9.97694885354905
 20
-2.990772100286241
 10
9.98595493587695
 20
-2.98277648954483
 10
9.98595493587695
 20
-2.97195291469895
 10
9.98595493587695
 20
-2.958789657320597
 10
9.975958727028061
 20
-2.953628792372154
 10
9.961296716491225
 20
-2.953628792372154
 10
9.954637098384298
 20
-2.953628792372154
 10
9.950798662693341
 20
-2.954123855632648
 10
9.948465761849366
 20
-2.954625700581643
 10
9.948465761849366
 20
-2.954625700581643
 10
9.948465761849366
 20
-2.990772100286241
 10
9.948465761849366
 20
-2.990772100286241
 97
        0
 92
        1
 93
        1
 72
     4
 94
        3
 73
     0
 74
     1
 95
       20
 96
       16
 40
0.0
 40
0.0
 40
0.0
 40
0.0
 40
1.0
 40
1.0
 40
1.0
 40
2.0
 40
2.0
 40
2.0
 40
3.0
 40
3.0
 40
3.0
 40
4.0
 40
4.0
 40
4.0
 40
5.0
 40
5.0
 40
5.0
 40
5.0
 10
9.948465761849366
 20
-3.044578016844643
 10
9.951300507642335
 20
-3.045079861793637
 10
9.95546446438129
 20
-3.045242622317635
 10
9.960632111018231
 20
-3.045242622317635
 10
9.975619642603066
 20
-3.045242622317635
 10
9.98945428714291
 20
-3.039749454632696
 10
9.98945428714291
 20
-3.023419148724878
 10
9.98945428714291
 20
-3.008099314403548
 10
9.976297811453058
 20
-3.001765217344619
 10
9.960455787117233
 20
-3.001765217344619
 10
9.960455787117233
 20
-3.001765217344619
 10
9.948465761849366
 20
-3.001765217344619
 10
9.948465761849366
 20
-3.001765217344619
 10
9.948465761849366
 20
-3.001765217344619
 10
9.948465761849366
 20
-3.044578016844643
 10
9.948465761849366
 20
-3.044578016844643
 97
        0
 75
     2
 76
     1
 98
        0
  0
ENDBLK
  5
19A
330
197
100
AcDbEntity
  8
0
100
AcDbBlockEnd
  0
BLOCK
  5
1A1
330
19F
100
AcDbEntity
  8
0
100
AcDbBlockBegin
  2
block 26
 70
     0
 71
     0
 10
0.0
 20
0.0
 30
0.0
  3
block 26
  1

  0
POLYLINE
  5
1A3
330
19F
100
AcDbEntity
  8
Layer 1
370
     0
100
AcDb2dPolyline
 66
     1
 10
0.0
 20
0.0
 30
0.0
  0
VERTEX
  5
1A4
330
1A3
100
AcDbEntity
  8
Layer 1
370
     0
100
AcDbVertex
100
AcDb2dVertex
 10
9.992112709034881
 20
-5.567752695061083
 30
0.0
  0
VERTEX
  5
1A5
330
1A3
100
AcDbEntity
  8
Layer 1
370
     0
100
AcDbVertex
100
AcDb2dVertex
 10
9.948465761849366
 20
-5.567752695061083
 30
0.0
  0
VERTEX
  5
1A6
330
1A3
100
AcDbEntity
  8
Layer 1
370
     0
100
AcDbVertex
100
AcDb2dVertex
 10
9.948465761849366
 20
-5.608239375405633
 30
0.0
  0
VERTEX
  5
1A7
330
1A3
100
AcDbEntity
  8
Layer 1
370
     0
100
AcDbVertex
100
AcDb2dVertex
 10
9.997104031770826
 20
-5.608239375405633
 30
0.0
  0
VERTEX
  5
1A8
330
1A3
100
AcDbEntity
  8
Layer 1
370
     0
100
AcDbVertex
100
AcDb2dVertex
 10
9.997104031770826
 20
-5.620392161197498
 30
0.0
  0
VERTEX
  5
1A9
330
1A3
100
AcDbEntity
  8
Layer 1
370
     0
100
AcDbVertex
100
AcDb2dVertex
 10
9.933980075213528
 20
-5.620392161197498
 30
0.0
  0
VERTEX
  5
1AA
330
1A3
100
AcDbEntity
  8
Layer 1
370
     0
100
AcDbVertex
100
AcDb2dVertex
 10
9.933980075213528
 20
-5.508114526392746
 30
0.0
  0
VERTEX
  5
1AB
330
1A3
100
AcDbEntity
  8
Layer 1
370
     0
100
AcDbVertex
100
AcDb2dVertex
 10
9.994608370402855
 20
-5.508114526392746
 30
0.0
  0
VERTEX
  5
1AC
330
1A3
100
AcDbEntity
  8
Layer 1
370
     0
100
AcDbVertex
100
AcDb2dVertex
 10
9.994608370402855
 20
-5.520280875561611
 30
0.0
  0
VERTEX
  5
1AD
330
1A3
100
AcDbEntity
  8
Layer 1
370
     0
100
AcDbVertex
100
AcDb2dVertex
 10
9.948465761849366
 20
-5.520280875561611
 30
0.0
  0
VERTEX
  5
1AE
330
1A3
100
AcDbEntity
  8
Layer 1
370
     0
100
AcDbVertex
100
AcDb2dVertex
 10
9.948465761849366
 20
-5.555762669793217
 30
0.0
  0
VERTEX
  5
1AF
330
1A3
100
AcDbEntity
  8
Layer 1
370
     0
100
AcDbVertex
100
AcDb2dVertex
 10
9.992112709034881
 20
-5.555762669793217
 30
0.0
  0
VERTEX
  5
1B0
330
1A3
100
AcDbEntity
  8
Layer 1
370
     0
100
AcDbVertex
100
AcDb2dVertex
 10
9.992112709034881
 20
-5.567752695061083
 30
0.0
  0
SEQEND
  5
1B1
330
1A3
100
AcDbEntity
  8
Layer 1
370
     0
  0
HATCH
  5
1B2
330
19F
100
AcDbEntity
  8
Layer 1
 62
   179
420
  2301728
100
AcDbHatch
 10
0.0
 20
0.0
 30
0.0
210
0.0
220
0.0
230
1.0
  2
SOLID
 70
     1
 71
     0
 91
        1
 92
        1
 93
       12
 72
     1
 10
9.992112709034881
 20
-5.567752695061083
 11
9.948465761849366
 21
-5.567752695061083
 72
     1
 10
9.948465761849366
 20
-5.567752695061083
 11
9.948465761849366
 21
-5.608239375405633
 72
     1
 10
9.948465761849366
 20
-5.608239375405633
 11
9.997104031770826
 21
-5.608239375405633
 72
     1
 10
9.997104031770826
 20
-5.608239375405633
 11
9.997104031770826
 21
-5.620392161197498
 72
     1
 10
9.997104031770826
 20
-5.620392161197498
 11
9.933980075213528
 21
-5.620392161197498
 72
     1
 10
9.933980075213528
 20
-5.620392161197498
 11
9.933980075213528
 21
-5.508114526392746
 72
     1
 10
9.933980075213528
 20
-5.508114526392746
 11
9.994608370402855
 21
-5.508114526392746
 72
     1
 10
9.994608370402855
 20
-5.508114526392746
 11
9.994608370402855
 21
-5.520280875561611
 72
     1
 10
9.994608370402855
 20
-5.520280875561611
 11
9.948465761849366
 21
-5.520280875561611
 72
     1
 10
9.948465761849366
 20
-5.520280875561611
 11
9.948465761849366
 21
-5.555762669793217
 72
     1
 10
9.948465761849366
 20
-5.555762669793217
 11
9.992112709034881
 21
-5.555762669793217
 72
     1
 10
9.992112709034881
 20
-5.555762669793217
 11
9.992112709034881
 21
-5.567752695061083
 97
        0
 75
     2
 76
     1
 98
        0
  0
ENDBLK
  5
1A2
330
19F
100
AcDbEntity
  8
0
100
AcDbBlockEnd
  0
BLOCK
  5
1B5
330
1B3
100
AcDbEntity
  8
0
100
AcDbBlockBegin
  2
block 27
 70
     0
 71
     0
 10
0.0
 20
0.0
 30
0.0
  3
block 27
  1

  0
POLYLINE
  5
1B7
330
1B3
100
AcDbEntity
  8
Layer 1
370
     0
100
AcDb2dPolyline
 66
     1
 10
0.0
 20
0.0
 30
0.0
  0
VERTEX
  5
1B8
330
1B7
100
AcDbEntity
  8
Layer 1
370
     0
100
AcDbVertex
100
AcDb2dVertex
 10
0.6836145458578978
 20
-3.992468181856101
 30
0.0
  0
VERTEX
  5
1B9
330
1B7
100
AcDbEntity
  8
Layer 1
370
     0
100
AcDbVertex
100
AcDb2dVertex
 10
0.6719568233265274
 20
-4.027780433875209
 30
0.0
  0
VERTEX
  5
1BA
330
1B7
100
AcDbEntity
  8
Layer 1
370
     0
100
AcDbVertex
100
AcDb2dVertex
 10
0.6569625100531942
 20
-4.027780433875209
 30
0.0
  0
VERTEX
  5
1BB
330
1B7
100
AcDbEntity
  8
Layer 1
370
     0
100
AcDbVertex
100
AcDb2dVertex
 10
0.6951095078652699
 20
-3.915509580758957
 30
0.0
  0
VERTEX
  5
1BC
330
1B7
100
AcDbEntity
  8
Layer 1
370
     0
100
AcDbVertex
100
AcDb2dVertex
 10
0.7125994825065755
 20
-3.915509580758957
 30
0.0
  0
VERTEX
  5
1BD
330
1B7
100
AcDbEntity
  8
Layer 1
370
     0
100
AcDbVertex
100
AcDb2dVertex
 10
0.7509092408426494
 20
-4.027780433875209
 30
0.0
  0
VERTEX
  5
1BE
330
1B7
100
AcDbEntity
  8
Layer 1
370
     0
100
AcDbVertex
100
AcDb2dVertex
 10
0.7354198643088217
 20
-4.027780433875209
 30
0.0
  0
VERTEX
  5
1BF
330
1B7
100
AcDbEntity
  8
Layer 1
370
     0
100
AcDbVertex
100
AcDb2dVertex
 10
0.723429839040955
 20
-3.992468181856101
 30
0.0
  0
VERTEX
  5
1C0
330
1B7
100
AcDbEntity
  8
Layer 1
370
     0
100
AcDbVertex
100
AcDb2dVertex
 10
0.6836145458578978
 20
-3.992468181856101
 30
0.0
  0
SEQEND
  5
1C1
330
1B7
100
AcDbEntity
  8
Layer 1
370
     0
  0
SPLINE
  5
1C2
330
1B3
100
AcDbEntity
  8
Layer 1
370
     0
100
AcDbSpline
210
0.0
220
0.0
230
1.0
 70
    11
 71
     3
 72
    23
 73
    19
 74
     0
 42
0.0000000001
 43
0.0000000001
 40
0.0
 40
0.0
 40
0.0
 40
0.0
 40
1.0
 40
1.0
 40
1.0
 40
2.0
 40
2.0
 40
2.0
 40
3.0
 40
3.0
 40
3.0
 40
4.0
 40
4.0
 40
4.0
 40
5.0
 40
5.0
 40
5.0
 40
6.0
 40
6.0
 40
6.0
 40
6.0
 10
0.7204255510354884
 20
-3.981135980372728
 30
0.0
 10
0.7204255510354884
 20
-3.981135980372728
 30
0.0
 10
0.7094324339771106
 20
-3.948821234670587
 30
0.0
 10
0.7094324339771106
 20
-3.948821234670587
 30
0.0
 10
0.7069367726091385
 20
-3.941497011090668
 30
0.0
 10
0.705268477238157
 20
-3.934830611295242
 30
0.0
 10
0.7036069635556754
 20
-3.928333753712315
 30
0.0
 10
0.7036069635556754
 20
-3.928333753712315
 30
0.0
 10
0.7032678791306792
 20
-3.928333753712315
 30
0.0
 10
0.7032678791306792
 20
-3.928333753712315
 30
0.0
 10
0.7016063654481978
 20
-3.93500015350774
 30
0.0
 10
0.6997753095532181
 20
-3.941829313827165
 30
0.0
 10
0.6976051692332422
 20
-3.948658474146589
 30
0.0
 10
0.6976051692332422
 20
-3.948658474146589
 30
0.0
 10
0.6866120521748644
 20
-3.981135980372728
 30
0.0
 10
0.6866120521748644
 20
-3.981135980372728
 30
0.0
 10
0.6866120521748644
 20
-3.981135980372728
 30
0.0
 10
0.7204255510354884
 20
-3.981135980372728
 30
0.0
 10
0.7204255510354884
 20
-3.981135980372728
 30
0.0
  0
HATCH
  5
1C3
330
1B3
100
AcDbEntity
  8
Layer 1
 62
   179
420
  2301728
100
AcDbHatch
 10
0.0
 20
0.0
 30
0.0
210
0.0
220
0.0
230
1.0
  2
SOLID
 70
     1
 71
     0
 91
        2
 92
        1
 93
        8
 72
     1
 10
0.6836145458578978
 20
-3.992468181856101
 11
0.6719568233265274
 21
-4.027780433875209
 72
     1
 10
0.6719568233265274
 20
-4.027780433875209
 11
0.6569625100531942
 21
-4.027780433875209
 72
     1
 10
0.6569625100531942
 20
-4.027780433875209
 11
0.6951095078652699
 21
-3.915509580758957
 72
     1
 10
0.6951095078652699
 20
-3.915509580758957
 11
0.7125994825065755
 21
-3.915509580758957
 72
     1
 10
0.7125994825065755
 20
-3.915509580758957
 11
0.7509092408426494
 21
-4.027780433875209
 72
     1
 10
0.7509092408426494
 20
-4.027780433875209
 11
0.7354198643088217
 21
-4.027780433875209
 72
     1
 10
0.7354198643088217
 20
-4.027780433875209
 11
0.723429839040955
 21
-3.992468181856101
 72
     1
 10
0.723429839040955
 20
-3.992468181856101
 11
0.6836145458578978
 21
-3.992468181856101
 97
        0
 92
        1
 93
        1
 72
     4
 94
        3
 73
     0
 74
     1
 95
       23
 96
       19
 40
0.0
 40
0.0
 40
0.0
 40
0.0
 40
1.0
 40
1.0
 40
1.0
 40
2.0
 40
2.0
 40
2.0
 40
3.0
 40
3.0
 40
3.0
 40
4.0
 40
4.0
 40
4.0
 40
5.0
 40
5.0
 40
5.0
 40
6.0
 40
6.0
 40
6.0
 40
6.0
 10
0.7204255510354884
 20
-3.981135980372728
 10
0.7204255510354884
 20
-3.981135980372728
 10
0.7094324339771106
 20
-3.948821234670587
 10
0.7094324339771106
 20
-3.948821234670587
 10
0.7069367726091385
 20
-3.941497011090668
 10
0.705268477238157
 20
-3.934830611295242
 10
0.7036069635556754
 20
-3.928333753712315
 10
0.7036069635556754
 20
-3.928333753712315
 10
0.7032678791306792
 20
-3.928333753712315
 10
0.7032678791306792
 20
-3.928333753712315
 10
0.7016063654481978
 20
-3.93500015350774
 10
0.6997753095532181
 20
-3.941829313827165
 10
0.6976051692332422
 20
-3.948658474146589
 10
0.6976051692332422
 20
-3.948658474146589
 10
0.6866120521748644
 20
-3.981135980372728
 10
0.6866120521748644
 20
-3.981135980372728
 10
0.6866120521748644
 20
-3.981135980372728
 10
0.7204255510354884
 20
-3.981135980372728
 10
0.7204255510354884
 20
-3.981135980372728
 97
        0
 75
     2
 76
     1
 98
        0
  0
ENDBLK
  5
1B6
330
1B3
100
AcDbEntity
  8
0
100
AcDbBlockEnd
  0
BLOCK
  5
1C6
330
1C4
100
AcDbEntity
  8
0
100
AcDbBlockBegin
  2
block 28
 70
     0
 71
     0
 10
0.0
 20
0.0
 30
0.0
  3
block 28
  1

  0
SPLINE
  5
1C8
330
1C4
100
AcDbEntity
  8
Layer 1
370
     0
100
AcDbSpline
210
0.0
220
0.0
230
1.0
 70
    11
 71
     3
 72
    35
 73
    31
 74
     0
 42
0.0000000001
 43
0.0000000001
 40
0.0
 40
0.0
 40
0.0
 40
0.0
 40
1.0
 40
1.0
 40
1.0
 40
2.0
 40
2.0
 40
2.0
 40
3.0
 40
3.0
 40
3.0
 40
4.0
 40
4.0
 40
4.0
 40
5.0
 40
5.0
 40
5.0
 40
6.0
 40
6.0
 40
6.0
 40
7.0
 40
7.0
 40
7.0
 40
8.0
 40
8.0
 40
8.0
 40
9.0
 40
9.0
 40
9.0
 40
10.0
 40
10.0
 40
10.0
 40
10.0
 10
0.3413901990862035
 20
-2.250340568175975
 30
0.0
 10
0.3477175144566332
 20
-2.24900457554149
 30
0.0
 10
0.357713723305522
 20
-2.248007667332001
 30
0.0
 10
0.3678726926784091
 20
-2.248007667332001
 30
0.0
 10
0.3823651610027479
 20
-2.248007667332001
 30
0.0
 10
0.3916967643786441
 20
-2.250503328699973
 30
0.0
 10
0.3986886852220664
 20
-2.25617282028591
 30
0.0
 10
0.4045209373320015
 20
-2.260499537548862
 30
0.0
 10
0.4080202885979626
 20
-2.267165937344288
 30
0.0
 10
0.4080202885979626
 20
-2.27599569577119
 30
0.0
 10
0.4080202885979626
 20
-2.286819270617069
 30
0.0
 10
0.4008588255420422
 20
-2.296313634516963
 30
0.0
 10
0.3890315607981737
 20
-2.300647133468416
 30
0.0
 10
0.3890315607981737
 20
-2.300647133468416
 30
0.0
 10
0.3890315607981737
 20
-2.300979436204912
 30
0.0
 10
0.3890315607981737
 20
-2.300979436204912
 30
0.0
 10
0.3996923751200552
 20
-2.303644639785382
 30
0.0
 10
0.4121842453369163
 20
-2.312474398212284
 30
0.0
 10
0.4121842453369163
 20
-2.329130225168099
 30
0.0
 10
0.4121842453369163
 20
-2.338794131280491
 30
0.0
 10
0.4083525913344589
 20
-2.34611835486041
 30
0.0
 10
0.4026898814370218
 20
-2.351618304233849
 30
0.0
 10
0.394857031219609
 20
-2.358779767289769
 30
0.0
 10
0.3822024004787497
 20
-2.362109576343232
 30
0.0
 10
0.3638782781519534
 20
-2.362109576343232
 30
0.0
 10
0.3538820693030646
 20
-2.362109576343232
 30
0.0
 10
0.3462187612981498
 20
-2.361444970870239
 30
0.0
 10
0.3413901990862035
 20
-2.360780365397247
 30
0.0
 10
0.3413901990862035
 20
-2.360780365397247
 30
0.0
 10
0.3413901990862035
 20
-2.250340568175975
 30
0.0
 10
0.3413901990862035
 20
-2.250340568175975
 30
0.0
  0
SPLINE
  5
1C9
330
1C4
100
AcDbEntity
  8
Layer 1
370
     0
100
AcDbSpline
210
0.0
220
0.0
230
1.0
 70
    11
 71
     3
 72
    20
 73
    16
 74
     0
 42
0.0000000001
 43
0.0000000001
 40
0.0
 40
0.0
 40
0.0
 40
0.0
 40
1.0
 40
1.0
 40
1.0
 40
2.0
 40
2.0
 40
2.0
 40
3.0
 40
3.0
 40
3.0
 40
4.0
 40
4.0
 40
4.0
 40
5.0
 40
5.0
 40
5.0
 40
5.0
 10
0.3558826674105424
 20
-2.296313634516963
 30
0.0
 10
0.3558826674105424
 20
-2.296313634516963
 30
0.0
 10
0.369039143100396
 20
-2.296313634516963
 30
0.0
 10
0.369039143100396
 20
-2.296313634516963
 30
0.0
 10
0.3843657591102256
 20
-2.296313634516963
 30
0.0
 10
0.3933582780611256
 20
-2.288318023775552
 30
0.0
 10
0.3933582780611256
 20
-2.277494448929673
 30
0.0
 10
0.3933582780611256
 20
-2.264331191551319
 30
0.0
 10
0.3833688509007367
 20
-2.259170326602877
 30
0.0
 10
0.3687068403638998
 20
-2.259170326602877
 30
0.0
 10
0.3620472222569738
 20
-2.259170326602877
 30
0.0
 10
0.3582155682545164
 20
-2.259665389863371
 30
0.0
 10
0.3558826674105424
 20
-2.260167234812366
 30
0.0
 10
0.3558826674105424
 20
-2.260167234812366
 30
0.0
 10
0.3558826674105424
 20
-2.296313634516963
 30
0.0
 10
0.3558826674105424
 20
-2.296313634516963
 30
0.0
  0
SPLINE
  5
1CA
330
1C4
100
AcDbEntity
  8
Layer 1
370
     0
100
AcDbSpline
210
0.0
220
0.0
230
1.0
 70
    11
 71
     3
 72
    20
 73
    16
 74
     0
 42
0.0000000001
 43
0.0000000001
 40
0.0
 40
0.0
 40
0.0
 40
0.0
 40
1.0
 40
1.0
 40
1.0
 40
2.0
 40
2.0
 40
2.0
 40
3.0
 40
3.0
 40
3.0
 40
4.0
 40
4.0
 40
4.0
 40
5.0
 40
5.0
 40
5.0
 40
5.0
 10
0.3558826674105424
 20
-2.350119551075365
 30
0.0
 10
0.3587106315150109
 20
-2.35062139602436
 30
0.0
 10
0.3628745882539646
 20
-2.350784156548358
 30
0.0
 10
0.3680422348909071
 20
-2.350784156548358
 30
0.0
 10
0.3830297664757405
 20
-2.350784156548358
 30
0.0
 10
0.3968576293270867
 20
-2.345290988863419
 30
0.0
 10
0.3968576293270867
 20
-2.3289606829556
 30
0.0
 10
0.3968576293270867
 20
-2.313640848634271
 30
0.0
 10
0.383701153637233
 20
-2.307306751575342
 30
0.0
 10
0.3678726926784091
 20
-2.307306751575342
 30
0.0
 10
0.3678726926784091
 20
-2.307306751575342
 30
0.0
 10
0.3558826674105424
 20
-2.307306751575342
 30
0.0
 10
0.3558826674105424
 20
-2.307306751575342
 30
0.0
 10
0.3558826674105424
 20
-2.307306751575342
 30
0.0
 10
0.3558826674105424
 20
-2.350119551075365
 30
0.0
 10
0.3558826674105424
 20
-2.350119551075365
 30
0.0
  0
HATCH
  5
1CB
330
1C4
100
AcDbEntity
  8
Layer 1
 62
   179
420
  2301728
100
AcDbHatch
 10
0.0
 20
0.0
 30
0.0
210
0.0
220
0.0
230
1.0
  2
SOLID
 70
     1
 71
     0
 91
        3
 92
        1
 93
        1
 72
     4
 94
        3
 73
     0
 74
     1
 95
       35
 96
       31
 40
0.0
 40
0.0
 40
0.0
 40
0.0
 40
1.0
 40
1.0
 40
1.0
 40
2.0
 40
2.0
 40
2.0
 40
3.0
 40
3.0
 40
3.0
 40
4.0
 40
4.0
 40
4.0
 40
5.0
 40
5.0
 40
5.0
 40
6.0
 40
6.0
 40
6.0
 40
7.0
 40
7.0
 40
7.0
 40
8.0
 40
8.0
 40
8.0
 40
9.0
 40
9.0
 40
9.0
 40
10.0
 40
10.0
 40
10.0
 40
10.0
 10
0.3413901990862035
 20
-2.250340568175975
 10
0.3477175144566332
 20
-2.24900457554149
 10
0.357713723305522
 20
-2.248007667332001
 10
0.3678726926784091
 20
-2.248007667332001
 10
0.3823651610027479
 20
-2.248007667332001
 10
0.3916967643786441
 20
-2.250503328699973
 10
0.3986886852220664
 20
-2.25617282028591
 10
0.4045209373320015
 20
-2.260499537548862
 10
0.4080202885979626
 20
-2.267165937344288
 10
0.4080202885979626
 20
-2.27599569577119
 10
0.4080202885979626
 20
-2.286819270617069
 10
0.4008588255420422
 20
-2.296313634516963
 10
0.3890315607981737
 20
-2.300647133468416
 10
0.3890315607981737
 20
-2.300647133468416
 10
0.3890315607981737
 20
-2.300979436204912
 10
0.3890315607981737
 20
-2.300979436204912
 10
0.3996923751200552
 20
-2.303644639785382
 10
0.4121842453369163
 20
-2.312474398212284
 10
0.4121842453369163
 20
-2.329130225168099
 10
0.4121842453369163
 20
-2.338794131280491
 10
0.4083525913344589
 20
-2.34611835486041
 10
0.4026898814370218
 20
-2.351618304233849
 10
0.394857031219609
 20
-2.358779767289769
 10
0.3822024004787497
 20
-2.362109576343232
 10
0.3638782781519534
 20
-2.362109576343232
 10
0.3538820693030646
 20
-2.362109576343232
 10
0.3462187612981498
 20
-2.361444970870239
 10
0.3413901990862035
 20
-2.360780365397247
 10
0.3413901990862035
 20
-2.360780365397247
 10
0.3413901990862035
 20
-2.250340568175975
 10
0.3413901990862035
 20
-2.250340568175975
 97
        0
 92
        1
 93
        1
 72
     4
 94
        3
 73
     0
 74
     1
 95
       20
 96
       16
 40
0.0
 40
0.0
 40
0.0
 40
0.0
 40
1.0
 40
1.0
 40
1.0
 40
2.0
 40
2.0
 40
2.0
 40
3.0
 40
3.0
 40
3.0
 40
4.0
 40
4.0
 40
4.0
 40
5.0
 40
5.0
 40
5.0
 40
5.0
 10
0.3558826674105424
 20
-2.296313634516963
 10
0.3558826674105424
 20
-2.296313634516963
 10
0.369039143100396
 20
-2.296313634516963
 10
0.369039143100396
 20
-2.296313634516963
 10
0.3843657591102256
 20
-2.296313634516963
 10
0.3933582780611256
 20
-2.288318023775552
 10
0.3933582780611256
 20
-2.277494448929673
 10
0.3933582780611256
 20
-2.264331191551319
 10
0.3833688509007367
 20
-2.259170326602877
 10
0.3687068403638998
 20
-2.259170326602877
 10
0.3620472222569738
 20
-2.259170326602877
 10
0.3582155682545164
 20
-2.259665389863371
 10
0.3558826674105424
 20
-2.260167234812366
 10
0.3558826674105424
 20
-2.260167234812366
 10
0.3558826674105424
 20
-2.296313634516963
 10
0.3558826674105424
 20
-2.296313634516963
 97
        0
 92
        1
 93
        1
 72
     4
 94
        3
 73
     0
 74
     1
 95
       20
 96
       16
 40
0.0
 40
0.0
 40
0.0
 40
0.0
 40
1.0
 40
1.0
 40
1.0
 40
2.0
 40
2.0
 40
2.0
 40
3.0
 40
3.0
 40
3.0
 40
4.0
 40
4.0
 40
4.0
 40
5.0
 40
5.0
 40
5.0
 40
5.0
 10
0.3558826674105424
 20
-2.350119551075365
 10
0.3587106315150109
 20
-2.35062139602436
 10
0.3628745882539646
 20
-2.350784156548358
 10
0.3680422348909071
 20
-2.350784156548358
 10
0.3830297664757405
 20
-2.350784156548358
 10
0.3968576293270867
 20
-2.345290988863419
 10
0.3968576293270867
 20
-2.3289606829556
 10
0.3968576293270867
 20
-2.313640848634271
 10
0.383701153637233
 20
-2.307306751575342
 10
0.3678726926784091
 20
-2.307306751575342
 10
0.3678726926784091
 20
-2.307306751575342
 10
0.3558826674105424
 20
-2.307306751575342
 10
0.3558826674105424
 20
-2.307306751575342
 10
0.3558826674105424
 20
-2.307306751575342
 10
0.3558826674105424
 20
-2.350119551075365
 10
0.3558826674105424
 20
-2.350119551075365
 97
        0
 75
     2
 76
     1
 98
        0
  0
ENDBLK
  5
1C7
330
1C4
100
AcDbEntity
  8
0
100
AcDbBlockEnd
  0
BLOCK
  5
1CE
330
1CC
100
AcDbEntity
  8
0
100
AcDbBlockBegin
  2
block 29
 70
     0
 71
     0
 10
0.0
 20
0.0
 30
0.0
  3
block 29
  1

  0
POLYLINE
  5
1D0
330
1CC
100
AcDbEntity
  8
Layer 1
370
     0
100
AcDb2dPolyline
 66
     1
 10
0.0
 20
0.0
 30
0.0
  0
VERTEX
  5
1D1
330
1D0
100
AcDbEntity
  8
Layer 1
370
     0
100
AcDbVertex
100
AcDb2dVertex
 10
0.3995228329075571
 20
-6.104781043993111
 30
0.0
  0
VERTEX
  5
1D2
330
1D0
100
AcDbEntity
  8
Layer 1
370
     0
100
AcDbVertex
100
AcDb2dVertex
 10
0.3558826674105424
 20
-6.104781043993111
 30
0.0
  0
VERTEX
  5
1D3
330
1D0
100
AcDbEntity
  8
Layer 1
370
     0
100
AcDbVertex
100
AcDb2dVertex
 10
0.3558826674105424
 20
-6.145267724337661
 30
0.0
  0
VERTEX
  5
1D4
330
1D0
100
AcDbEntity
  8
Layer 1
370
     0
100
AcDbVertex
100
AcDb2dVertex
 10
0.4045209373320015
 20
-6.145267724337661
 30
0.0
  0
VERTEX
  5
1D5
330
1D0
100
AcDbEntity
  8
Layer 1
370
     0
100
AcDbVertex
100
AcDb2dVertex
 10
0.4045209373320015
 20
-6.157420510129525
 30
0.0
  0
VERTEX
  5
1D6
330
1D0
100
AcDbEntity
  8
Layer 1
370
     0
100
AcDbVertex
100
AcDb2dVertex
 10
0.3413901990862035
 20
-6.157420510129525
 30
0.0
  0
VERTEX
  5
1D7
330
1D0
100
AcDbEntity
  8
Layer 1
370
     0
100
AcDbVertex
100
AcDb2dVertex
 10
0.3413901990862035
 20
-6.045142875324775
 30
0.0
  0
VERTEX
  5
1D8
330
1D0
100
AcDbEntity
  8
Layer 1
370
     0
100
AcDbVertex
100
AcDb2dVertex
 10
0.4020184942755293
 20
-6.045142875324775
 30
0.0
  0
VERTEX
  5
1D9
330
1D0
100
AcDbEntity
  8
Layer 1
370
     0
100
AcDbVertex
100
AcDb2dVertex
 10
0.4020184942755293
 20
-6.057309224493639
 30
0.0
  0
VERTEX
  5
1DA
330
1D0
100
AcDbEntity
  8
Layer 1
370
     0
100
AcDbVertex
100
AcDb2dVertex
 10
0.3558826674105424
 20
-6.057309224493639
 30
0.0
  0
VERTEX
  5
1DB
330
1D0
100
AcDbEntity
  8
Layer 1
370
     0
100
AcDbVertex
100
AcDb2dVertex
 10
0.3558826674105424
 20
-6.092791018725245
 30
0.0
  0
VERTEX
  5
1DC
330
1D0
100
AcDbEntity
  8
Layer 1
370
     0
100
AcDbVertex
100
AcDb2dVertex
 10
0.3995228329075571
 20
-6.092791018725245
 30
0.0
  0
VERTEX
  5
1DD
330
1D0
100
AcDbEntity
  8
Layer 1
370
     0
100
AcDbVertex
100
AcDb2dVertex
 10
0.3995228329075571
 20
-6.104781043993111
 30
0.0
  0
SEQEND
  5
1DE
330
1D0
100
AcDbEntity
  8
Layer 1
370
     0
  0
HATCH
  5
1DF
330
1CC
100
AcDbEntity
  8
Layer 1
 62
   179
420
  2301728
100
AcDbHatch
 10
0.0
 20
0.0
 30
0.0
210
0.0
220
0.0
230
1.0
  2
SOLID
 70
     1
 71
     0
 91
        1
 92
        1
 93
       12
 72
     1
 10
0.3995228329075571
 20
-6.104781043993111
 11
0.3558826674105424
 21
-6.104781043993111
 72
     1
 10
0.3558826674105424
 20
-6.104781043993111
 11
0.3558826674105424
 21
-6.145267724337661
 72
     1
 10
0.3558826674105424
 20
-6.145267724337661
 11
0.4045209373320015
 21
-6.145267724337661
 72
     1
 10
0.4045209373320015
 20
-6.145267724337661
 11
0.4045209373320015
 21
-6.157420510129525
 72
     1
 10
0.4045209373320015
 20
-6.157420510129525
 11
0.3413901990862035
 21
-6.157420510129525
 72
     1
 10
0.3413901990862035
 20
-6.157420510129525
 11
0.3413901990862035
 21
-6.045142875324775
 72
     1
 10
0.3413901990862035
 20
-6.045142875324775
 11
0.4020184942755293
 21
-6.045142875324775
 72
     1
 10
0.4020184942755293
 20
-6.045142875324775
 11
0.4020184942755293
 21
-6.057309224493639
 72
     1
 10
0.4020184942755293
 20
-6.057309224493639
 11
0.3558826674105424
 21
-6.057309224493639
 72
     1
 10
0.3558826674105424
 20
-6.057309224493639
 11
0.3558826674105424
 21
-6.092791018725245
 72
     1
 10
0.3558826674105424
 20
-6.092791018725245
 11
0.3995228329075571
 21
-6.092791018725245
 72
     1
 10
0.3995228329075571
 20
-6.092791018725245
 11
0.3995228329075571
 21
-6.104781043993111
 97
        0
 75
     2
 76
     1
 98
        0
  0
ENDBLK
  5
1CF
330
1CC
100
AcDbEntity
  8
0
100
AcDbBlockEnd
  0
BLOCK
  5
1E2
330
1E0
100
AcDbEntity
  8
0
100
AcDbBlockBegin
  2
block 30
 70
     0
 71
     0
 10
0.0
 20
0.0
 30
0.0
  3
block 30
  1

  0
SPLINE
  5
1E4
330
1E0
100
AcDbEntity
  8
Layer 1
370
     0
100
AcDbSpline
210
0.0
220
0.0
230
1.0
 70
    11
 71
     3
 72
    26
 73
    22
 74
     0
 42
0.0000000001
 43
0.0000000001
 40
0.0
 40
0.0
 40
0.0
 40
0.0
 40
1.0
 40
1.0
 40
1.0
 40
2.0
 40
2.0
 40
2.0
 40
3.0
 40
3.0
 40
3.0
 40
4.0
 40
4.0
 40
4.0
 40
5.0
 40
5.0
 40
5.0
 40
6.0
 40
6.0
 40
6.0
 40
7.0
 40
7.0
 40
7.0
 40
7.0
 10
3.674725730569135
 20
-6.083689992758345
 30
0.0
 10
3.683555488996037
 20
-6.08236078181236
 30
0.0
 10
3.69404676110542
 20
-6.081357091914372
 30
0.0
 10
3.705541723112792
 20
-6.081357091914372
 30
0.0
 10
3.726361506807561
 20
-6.081357091914372
 30
0.0
 10
3.741186277868396
 20
-6.086185654126318
 30
0.0
 10
3.751012944504787
 20
-6.095354496978216
 30
0.0
 10
3.761009153353675
 20
-6.104509776453114
 30
0.0
 10
3.766841405463611
 20
-6.11750349161897
 30
0.0
 10
3.766841405463611
 20
-6.135664853421768
 30
0.0
 10
3.766841405463611
 20
-6.153975412371564
 30
0.0
 10
3.761178695566173
 20
-6.168976507333397
 30
0.0
 10
3.75068064176829
 20
-6.179311800607282
 30
0.0
 10
3.740189369658907
 20
-6.189796291028165
 30
0.0
 10
3.7228621555416
 20
-6.195452219237103
 30
0.0
 10
3.701045463637342
 20
-6.195452219237103
 30
0.0
 10
3.690716952051957
 20
-6.195452219237103
 30
0.0
 10
3.682049954149053
 20
-6.194963937665109
 30
0.0
 10
3.674725730569135
 20
-6.194123008291117
 30
0.0
 10
3.674725730569135
 20
-6.194123008291117
 30
0.0
 10
3.674725730569135
 20
-6.083689992758345
 30
0.0
 10
3.674725730569135
 20
-6.083689992758345
 30
0.0
  0
SPLINE
  5
1E5
330
1E0
100
AcDbEntity
  8
Layer 1
370
     0
100
AcDbSpline
210
0.0
220
0.0
230
1.0
 70
    11
 71
     3
 72
    20
 73
    16
 74
     0
 42
0.0000000001
 43
0.0000000001
 40
0.0
 40
0.0
 40
0.0
 40
0.0
 40
1.0
 40
1.0
 40
1.0
 40
2.0
 40
2.0
 40
2.0
 40
3.0
 40
3.0
 40
3.0
 40
4.0
 40
4.0
 40
4.0
 40
5.0
 40
5.0
 40
5.0
 40
5.0
 10
3.689218198893474
 20
-6.182973912397242
 30
0.0
 10
3.692880310683433
 20
-6.183624954493235
 30
0.0
 10
3.698210717844374
 20
-6.183801278394233
 30
0.0
 10
3.703873427741811
 20
-6.183801278394233
 30
0.0
 10
3.734858962497966
 20
-6.183801278394233
 30
0.0
 10
3.751684331666279
 20
-6.166480845965425
 30
0.0
 10
3.751684331666279
 20
-6.136153134993762
 30
0.0
 10
3.751847092190277
 20
-6.109677423090057
 30
0.0
 10
3.736859560605444
 20
-6.092858835610244
 30
0.0
 10
3.706206328585785
 20
-6.092858835610244
 30
0.0
 10
3.698712562793368
 20
-6.092858835610244
 30
0.0
 10
3.693049852895931
 20
-6.093509877706237
 30
0.0
 10
3.689218198893474
 20
-6.094350807080227
 30
0.0
 10
3.689218198893474
 20
-6.094350807080227
 30
0.0
 10
3.689218198893474
 20
-6.182973912397242
 30
0.0
 10
3.689218198893474
 20
-6.182973912397242
 30
0.0
  0
HATCH
  5
1E6
330
1E0
100
AcDbEntity
  8
Layer 1
 62
   179
420
  2301728
100
AcDbHatch
 10
0.0
 20
0.0
 30
0.0
210
0.0
220
0.0
230
1.0
  2
SOLID
 70
     1
 71
     0
 91
        2
 92
        1
 93
        1
 72
     4
 94
        3
 73
     0
 74
     1
 95
       26
 96
       22
 40
0.0
 40
0.0
 40
0.0
 40
0.0
 40
1.0
 40
1.0
 40
1.0
 40
2.0
 40
2.0
 40
2.0
 40
3.0
 40
3.0
 40
3.0
 40
4.0
 40
4.0
 40
4.0
 40
5.0
 40
5.0
 40
5.0
 40
6.0
 40
6.0
 40
6.0
 40
7.0
 40
7.0
 40
7.0
 40
7.0
 10
3.674725730569135
 20
-6.083689992758345
 10
3.683555488996037
 20
-6.08236078181236
 10
3.69404676110542
 20
-6.081357091914372
 10
3.705541723112792
 20
-6.081357091914372
 10
3.726361506807561
 20
-6.081357091914372
 10
3.741186277868396
 20
-6.086185654126318
 10
3.751012944504787
 20
-6.095354496978216
 10
3.761009153353675
 20
-6.104509776453114
 10
3.766841405463611
 20
-6.11750349161897
 10
3.766841405463611
 20
-6.135664853421768
 10
3.766841405463611
 20
-6.153975412371564
 10
3.761178695566173
 20
-6.168976507333397
 10
3.75068064176829
 20
-6.179311800607282
 10
3.740189369658907
 20
-6.189796291028165
 10
3.7228621555416
 20
-6.195452219237103
 10
3.701045463637342
 20
-6.195452219237103
 10
3.690716952051957
 20
-6.195452219237103
 10
3.682049954149053
 20
-6.194963937665109
 10
3.674725730569135
 20
-6.194123008291117
 10
3.674725730569135
 20
-6.194123008291117
 10
3.674725730569135
 20
-6.083689992758345
 10
3.674725730569135
 20
-6.083689992758345
 97
        0
 92
        1
 93
        1
 72
     4
 94
        3
 73
     0
 74
     1
 95
       20
 96
       16
 40
0.0
 40
0.0
 40
0.0
 40
0.0
 40
1.0
 40
1.0
 40
1.0
 40
2.0
 40
2.0
 40
2.0
 40
3.0
 40
3.0
 40
3.0
 40
4.0
 40
4.0
 40
4.0
 40
5.0
 40
5.0
 40
5.0
 40
5.0
 10
3.689218198893474
 20
-6.182973912397242
 10
3.692880310683433
 20
-6.183624954493235
 10
3.698210717844374
 20
-6.183801278394233
 10
3.703873427741811
 20
-6.183801278394233
 10
3.734858962497966
 20
-6.183801278394233
 10
3.751684331666279
 20
-6.166480845965425
 10
3.751684331666279
 20
-6.136153134993762
 10
3.751847092190277
 20
-6.109677423090057
 10
3.736859560605444
 20
-6.092858835610244
 10
3.706206328585785
 20
-6.092858835610244
 10
3.698712562793368
 20
-6.092858835610244
 10
3.693049852895931
 20
-6.093509877706237
 10
3.689218198893474
 20
-6.094350807080227
 10
3.689218198893474
 20
-6.094350807080227
 10
3.689218198893474
 20
-6.182973912397242
 10
3.689218198893474
 20
-6.182973912397242
 97
        0
 75
     2
 76
     1
 98
        0
  0
ENDBLK
  5
1E3
330
1E0
100
AcDbEntity
  8
0
100
AcDbBlockEnd
  0
BLOCK
  5
1E9
330
1E7
100
AcDbEntity
  8
0
100
AcDbBlockBegin
  2
block 31
 70
     0
 71
     0
 10
0.0
 20
0.0
 30
0.0
  3
block 31
  1

  0
SPLINE
  5
1EB
330
1E7
100
AcDbEntity
  8
Layer 1
370
     0
100
AcDbSpline
210
0.0
220
0.0
230
1.0
 70
    11
 71
     3
 72
    26
 73
    22
 74
     0
 42
0.0000000001
 43
0.0000000001
 40
0.0
 40
0.0
 40
0.0
 40
0.0
 40
1.0
 40
1.0
 40
1.0
 40
2.0
 40
2.0
 40
2.0
 40
3.0
 40
3.0
 40
3.0
 40
4.0
 40
4.0
 40
4.0
 40
5.0
 40
5.0
 40
5.0
 40
6.0
 40
6.0
 40
6.0
 40
7.0
 40
7.0
 40
7.0
 40
7.0
 10
3.674725730569135
 20
-5.398508876856965
 30
0.0
 10
3.683555488996037
 20
-5.39716610253398
 30
0.0
 10
3.69404676110542
 20
-5.396175976012992
 30
0.0
 10
3.705541723112792
 20
-5.396175976012992
 30
0.0
 10
3.726361506807561
 20
-5.396175976012992
 30
0.0
 10
3.741186277868396
 20
-5.401004538224938
 30
0.0
 10
3.751012944504787
 20
-5.410159817699836
 30
0.0
 10
3.761009153353675
 20
-5.419328660551733
 30
0.0
 10
3.766841405463611
 20
-5.43232237571759
 30
0.0
 10
3.766841405463611
 20
-5.450470174143388
 30
0.0
 10
3.766841405463611
 20
-5.468807859847184
 30
0.0
 10
3.761178695566173
 20
-5.483795391432017
 30
0.0
 10
3.75068064176829
 20
-5.494117121328902
 30
0.0
 10
3.740189369658907
 20
-5.504615175126785
 30
0.0
 10
3.7228621555416
 20
-5.510284666712723
 30
0.0
 10
3.701045463637342
 20
-5.510284666712723
 30
0.0
 10
3.690716952051957
 20
-5.510284666712723
 30
0.0
 10
3.682049954149053
 20
-5.509782821763728
 30
0.0
 10
3.674725730569135
 20
-5.508955455766738
 30
0.0
 10
3.674725730569135
 20
-5.508955455766738
 30
0.0
 10
3.674725730569135
 20
-5.398508876856965
 30
0.0
 10
3.674725730569135
 20
-5.398508876856965
 30
0.0
  0
SPLINE
  5
1EC
330
1E7
100
AcDbEntity
  8
Layer 1
370
     0
100
AcDbSpline
210
0.0
220
0.0
230
1.0
 70
    11
 71
     3
 72
    20
 73
    16
 74
     0
 42
0.0000000001
 43
0.0000000001
 40
0.0
 40
0.0
 40
0.0
 40
0.0
 40
1.0
 40
1.0
 40
1.0
 40
2.0
 40
2.0
 40
2.0
 40
3.0
 40
3.0
 40
3.0
 40
4.0
 40
4.0
 40
4.0
 40
5.0
 40
5.0
 40
5.0
 40
5.0
 10
3.689218198893474
 20
-5.497779233118862
 30
0.0
 10
3.692880310683433
 20
-5.498457401968854
 30
0.0
 10
3.698210717844374
 20
-5.498620162492852
 30
0.0
 10
3.703873427741811
 20
-5.498620162492852
 30
0.0
 10
3.734858962497966
 20
-5.498620162492852
 30
0.0
 10
3.751684331666279
 20
-5.481299730064045
 30
0.0
 10
3.751684331666279
 20
-5.450985582469381
 30
0.0
 10
3.751847092190277
 20
-5.424496307188677
 30
0.0
 10
3.736859560605444
 20
-5.407664156331863
 30
0.0
 10
3.706206328585785
 20
-5.407664156331863
 30
0.0
 10
3.698712562793368
 20
-5.407664156331863
 30
0.0
 10
3.693049852895931
 20
-5.408342325181856
 30
0.0
 10
3.689218198893474
 20
-5.409169691178847
 30
0.0
 10
3.689218198893474
 20
-5.409169691178847
 30
0.0
 10
3.689218198893474
 20
-5.497779233118862
 30
0.0
 10
3.689218198893474
 20
-5.497779233118862
 30
0.0
  0
HATCH
  5
1ED
330
1E7
100
AcDbEntity
  8
Layer 1
 62
   179
420
  2301728
100
AcDbHatch
 10
0.0
 20
0.0
 30
0.0
210
0.0
220
0.0
230
1.0
  2
SOLID
 70
     1
 71
     0
 91
        2
 92
        1
 93
        1
 72
     4
 94
        3
 73
     0
 74
     1
 95
       26
 96
       22
 40
0.0
 40
0.0
 40
0.0
 40
0.0
 40
1.0
 40
1.0
 40
1.0
 40
2.0
 40
2.0
 40
2.0
 40
3.0
 40
3.0
 40
3.0
 40
4.0
 40
4.0
 40
4.0
 40
5.0
 40
5.0
 40
5.0
 40
6.0
 40
6.0
 40
6.0
 40
7.0
 40
7.0
 40
7.0
 40
7.0
 10
3.674725730569135
 20
-5.398508876856965
 10
3.683555488996037
 20
-5.39716610253398
 10
3.69404676110542
 20
-5.396175976012992
 10
3.705541723112792
 20
-5.396175976012992
 10
3.726361506807561
 20
-5.396175976012992
 10
3.741186277868396
 20
-5.401004538224938
 10
3.751012944504787
 20
-5.410159817699836
 10
3.761009153353675
 20
-5.419328660551733
 10
3.766841405463611
 20
-5.43232237571759
 10
3.766841405463611
 20
-5.450470174143388
 10
3.766841405463611
 20
-5.468807859847184
 10
3.761178695566173
 20
-5.483795391432017
 10
3.75068064176829
 20
-5.494117121328902
 10
3.740189369658907
 20
-5.504615175126785
 10
3.7228621555416
 20
-5.510284666712723
 10
3.701045463637342
 20
-5.510284666712723
 10
3.690716952051957
 20
-5.510284666712723
 10
3.682049954149053
 20
-5.509782821763728
 10
3.674725730569135
 20
-5.508955455766738
 10
3.674725730569135
 20
-5.508955455766738
 10
3.674725730569135
 20
-5.398508876856965
 10
3.674725730569135
 20
-5.398508876856965
 97
        0
 92
        1
 93
        1
 72
     4
 94
        3
 73
     0
 74
     1
 95
       20
 96
       16
 40
0.0
 40
0.0
 40
0.0
 40
0.0
 40
1.0
 40
1.0
 40
1.0
 40
2.0
 40
2.0
 40
2.0
 40
3.0
 40
3.0
 40
3.0
 40
4.0
 40
4.0
 40
4.0
 40
5.0
 40
5.0
 40
5.0
 40
5.0
 10
3.689218198893474
 20
-5.497779233118862
 10
3.692880310683433
 20
-5.498457401968854
 10
3.698210717844374
 20
-5.498620162492852
 10
3.703873427741811
 20
-5.498620162492852
 10
3.734858962497966
 20
-5.498620162492852
 10
3.751684331666279
 20
-5.481299730064045
 10
3.751684331666279
 20
-5.450985582469381
 10
3.751847092190277
 20
-5.424496307188677
 10
3.736859560605444
 20
-5.407664156331863
 10
3.706206328585785
 20
-5.407664156331863
 10
3.698712562793368
 20
-5.407664156331863
 10
3.693049852895931
 20
-5.408342325181856
 10
3.689218198893474
 20
-5.409169691178847
 10
3.689218198893474
 20
-5.409169691178847
 10
3.689218198893474
 20
-5.497779233118862
 10
3.689218198893474
 20
-5.497779233118862
 97
        0
 75
     2
 76
     1
 98
        0
  0
ENDBLK
  5
1EA
330
1E7
100
AcDbEntity
  8
0
100
AcDbBlockEnd
  0
BLOCK
  5
1F0
330
1EE
100
AcDbEntity
  8
0
100
AcDbBlockBegin
  2
block 32
 70
     0
 71
     0
 10
0.0
 20
0.0
 30
0.0
  3
block 32
  1

  0
SPLINE
  5
1F2
330
1EE
100
AcDbEntity
  8
Layer 1
370
     0
100
AcDbSpline
210
0.0
220
0.0
230
1.0
 70
    11
 71
     3
 72
    35
 73
    31
 74
     0
 42
0.0000000001
 43
0.0000000001
 40
0.0
 40
0.0
 40
0.0
 40
0.0
 40
1.0
 40
1.0
 40
1.0
 40
2.0
 40
2.0
 40
2.0
 40
3.0
 40
3.0
 40
3.0
 40
4.0
 40
4.0
 40
4.0
 40
5.0
 40
5.0
 40
5.0
 40
6.0
 40
6.0
 40
6.0
 40
7.0
 40
7.0
 40
7.0
 40
8.0
 40
8.0
 40
8.0
 40
9.0
 40
9.0
 40
9.0
 40
10.0
 40
10.0
 40
10.0
 40
10.0
 10
3.753183084824762
 20
-3.051909022113061
 30
0.0
 10
3.747852677663821
 20
-3.054574225693531
 30
0.0
 10
3.73719186334194
 20
-3.057402189798
 30
0.0
 10
3.723533542703092
 20
-3.057402189798
 30
0.0
 10
3.691883402473944
 20
-3.057402189798
 30
0.0
 10
3.668059330773709
 20
-3.037247011576224
 30
0.0
 10
3.668059330773709
 20
-3.000436006398633
 30
0.0
 10
3.668059330773709
 20
-2.965286514903524
 30
0.0
 10
3.691883402473944
 20
-2.941469224891789
 30
0.0
 10
3.726693809544057
 20
-2.941469224891789
 30
0.0
 10
3.740684432919402
 20
-2.941469224891789
 30
0.0
 10
3.749514191346303
 20
-2.944466731208756
 30
0.0
 10
3.753345845348761
 20
-2.946467329316234
 30
0.0
 10
3.753345845348761
 20
-2.946467329316234
 30
0.0
 10
3.749846494082799
 20
-2.958294594060102
 30
0.0
 10
3.749846494082799
 20
-2.958294594060102
 30
0.0
 10
3.744353326397861
 20
-2.955622608791132
 30
0.0
 10
3.736520476180448
 20
-2.953628792372154
 30
0.0
 10
3.727195654493051
 20
-2.953628792372154
 30
0.0
 10
3.700875921424844
 20
-2.953628792372154
 30
0.0
 10
3.683385946783539
 20
-2.970454161540467
 30
0.0
 10
3.683385946783539
 20
-2.999934161449639
 30
0.0
 10
3.683385946783539
 20
-3.027420344939833
 30
0.0
 10
3.699207626053862
 20
-3.045079861793637
 30
0.0
 10
3.726531049020059
 20
-3.045079861793637
 30
0.0
 10
3.735354025758461
 20
-3.045079861793637
 30
0.0
 10
3.744353326397861
 20
-3.043242024210157
 30
0.0
 10
3.750185578507796
 20
-3.040414060105689
 30
0.0
 10
3.750185578507796
 20
-3.040414060105689
 30
0.0
 10
3.753183084824762
 20
-3.051909022113061
 30
0.0
 10
3.753183084824762
 20
-3.051909022113061
 30
0.0
  0
HATCH
  5
1F3
330
1EE
100
AcDbEntity
  8
Layer 1
 62
   179
420
  2301728
100
AcDbHatch
 10
0.0
 20
0.0
 30
0.0
210
0.0
220
0.0
230
1.0
  2
SOLID
 70
     1
 71
     0
 91
        1
 92
        1
 93
        1
 72
     4
 94
        3
 73
     0
 74
     1
 95
       35
 96
       31
 40
0.0
 40
0.0
 40
0.0
 40
0.0
 40
1.0
 40
1.0
 40
1.0
 40
2.0
 40
2.0
 40
2.0
 40
3.0
 40
3.0
 40
3.0
 40
4.0
 40
4.0
 40
4.0
 40
5.0
 40
5.0
 40
5.0
 40
6.0
 40
6.0
 40
6.0
 40
7.0
 40
7.0
 40
7.0
 40
8.0
 40
8.0
 40
8.0
 40
9.0
 40
9.0
 40
9.0
 40
10.0
 40
10.0
 40
10.0
 40
10.0
 10
3.753183084824762
 20
-3.051909022113061
 10
3.747852677663821
 20
-3.054574225693531
 10
3.73719186334194
 20
-3.057402189798
 10
3.723533542703092
 20
-3.057402189798
 10
3.691883402473944
 20
-3.057402189798
 10
3.668059330773709
 20
-3.037247011576224
 10
3.668059330773709
 20
-3.000436006398633
 10
3.668059330773709
 20
-2.965286514903524
 10
3.691883402473944
 20
-2.941469224891789
 10
3.726693809544057
 20
-2.941469224891789
 10
3.740684432919402
 20
-2.941469224891789
 10
3.749514191346303
 20
-2.944466731208756
 10
3.753345845348761
 20
-2.946467329316234
 10
3.753345845348761
 20
-2.946467329316234
 10
3.749846494082799
 20
-2.958294594060102
 10
3.749846494082799
 20
-2.958294594060102
 10
3.744353326397861
 20
-2.955622608791132
 10
3.736520476180448
 20
-2.953628792372154
 10
3.727195654493051
 20
-2.953628792372154
 10
3.700875921424844
 20
-2.953628792372154
 10
3.683385946783539
 20
-2.970454161540467
 10
3.683385946783539
 20
-2.999934161449639
 10
3.683385946783539
 20
-3.027420344939833
 10
3.699207626053862
 20
-3.045079861793637
 10
3.726531049020059
 20
-3.045079861793637
 10
3.735354025758461
 20
-3.045079861793637
 10
3.744353326397861
 20
-3.043242024210157
 10
3.750185578507796
 20
-3.040414060105689
 10
3.750185578507796
 20
-3.040414060105689
 10
3.753183084824762
 20
-3.051909022113061
 10
3.753183084824762
 20
-3.051909022113061
 97
        0
 75
     2
 76
     1
 98
        0
  0
ENDBLK
  5
1F1
330
1EE
100
AcDbEntity
  8
0
100
AcDbBlockEnd
  0
BLOCK
  5
1F6
330
1F4
100
AcDbEntity
  8
0
100
AcDbBlockBegin
  2
block 33
 70
     0
 71
     0
 10
0.0
 20
0.0
 30
0.0
  3
block 33
  1

  0
SPLINE
  5
1F8
330
1F4
100
AcDbEntity
  8
Layer 1
370
     0
100
AcDbSpline
210
0.0
220
0.0
230
1.0
 70
    11
 71
     3
 72
    35
 73
    31
 74
     0
 42
0.0000000001
 43
0.0000000001
 40
0.0
 40
0.0
 40
0.0
 40
0.0
 40
1.0
 40
1.0
 40
1.0
 40
2.0
 40
2.0
 40
2.0
 40
3.0
 40
3.0
 40
3.0
 40
4.0
 40
4.0
 40
4.0
 40
5.0
 40
5.0
 40
5.0
 40
6.0
 40
6.0
 40
6.0
 40
7.0
 40
7.0
 40
7.0
 40
8.0
 40
8.0
 40
8.0
 40
9.0
 40
9.0
 40
9.0
 40
10.0
 40
10.0
 40
10.0
 40
10.0
 10
3.753183084824762
 20
-2.426895046583012
 30
0.0
 10
3.747852677663821
 20
-2.429560250163482
 30
0.0
 10
3.73719186334194
 20
-2.43238821426795
 30
0.0
 10
3.723533542703092
 20
-2.43238821426795
 30
0.0
 10
3.691883402473944
 20
-2.43238821426795
 30
0.0
 10
3.668059330773709
 20
-2.412233036046175
 30
0.0
 10
3.668059330773709
 20
-2.375422030868584
 30
0.0
 10
3.668059330773709
 20
-2.340272539373475
 30
0.0
 10
3.691883402473944
 20
-2.31645524936174
 30
0.0
 10
3.726693809544057
 20
-2.31645524936174
 30
0.0
 10
3.740684432919402
 20
-2.31645524936174
 30
0.0
 10
3.749514191346303
 20
-2.319452755678706
 30
0.0
 10
3.753345845348761
 20
-2.321453353786184
 30
0.0
 10
3.753345845348761
 20
-2.321453353786184
 30
0.0
 10
3.749846494082799
 20
-2.333280618530052
 30
0.0
 10
3.749846494082799
 20
-2.333280618530052
 30
0.0
 10
3.744353326397861
 20
-2.330608633261082
 30
0.0
 10
3.736520476180448
 20
-2.328614816842105
 30
0.0
 10
3.727195654493051
 20
-2.328614816842105
 30
0.0
 10
3.700875921424844
 20
-2.328614816842105
 30
0.0
 10
3.683385946783539
 20
-2.345440186010417
 30
0.0
 10
3.683385946783539
 20
-2.374920185919589
 30
0.0
 10
3.683385946783539
 20
-2.402406369409784
 30
0.0
 10
3.699207626053862
 20
-2.420065886263588
 30
0.0
 10
3.726531049020059
 20
-2.420065886263588
 30
0.0
 10
3.735354025758461
 20
-2.420065886263588
 30
0.0
 10
3.744353326397861
 20
-2.418228048680108
 30
0.0
 10
3.750185578507796
 20
-2.415400084575639
 30
0.0
 10
3.750185578507796
 20
-2.415400084575639
 30
0.0
 10
3.753183084824762
 20
-2.426895046583012
 30
0.0
 10
3.753183084824762
 20
-2.426895046583012
 30
0.0
  0
HATCH
  5
1F9
330
1F4
100
AcDbEntity
  8
Layer 1
 62
   179
420
  2301728
100
AcDbHatch
 10
0.0
 20
0.0
 30
0.0
210
0.0
220
0.0
230
1.0
  2
SOLID
 70
     1
 71
     0
 91
        1
 92
        1
 93
        1
 72
     4
 94
        3
 73
     0
 74
     1
 95
       35
 96
       31
 40
0.0
 40
0.0
 40
0.0
 40
0.0
 40
1.0
 40
1.0
 40
1.0
 40
2.0
 40
2.0
 40
2.0
 40
3.0
 40
3.0
 40
3.0
 40
4.0
 40
4.0
 40
4.0
 40
5.0
 40
5.0
 40
5.0
 40
6.0
 40
6.0
 40
6.0
 40
7.0
 40
7.0
 40
7.0
 40
8.0
 40
8.0
 40
8.0
 40
9.0
 40
9.0
 40
9.0
 40
10.0
 40
10.0
 40
10.0
 40
10.0
 10
3.753183084824762
 20
-2.426895046583012
 10
3.747852677663821
 20
-2.429560250163482
 10
3.73719186334194
 20
-2.43238821426795
 10
3.723533542703092
 20
-2.43238821426795
 10
3.691883402473944
 20
-2.43238821426795
 10
3.668059330773709
 20
-2.412233036046175
 10
3.668059330773709
 20
-2.375422030868584
 10
3.668059330773709
 20
-2.340272539373475
 10
3.691883402473944
 20
-2.31645524936174
 10
3.726693809544057
 20
-2.31645524936174
 10
3.740684432919402
 20
-2.31645524936174
 10
3.749514191346303
 20
-2.319452755678706
 10
3.753345845348761
 20
-2.321453353786184
 10
3.753345845348761
 20
-2.321453353786184
 10
3.749846494082799
 20
-2.333280618530052
 10
3.749846494082799
 20
-2.333280618530052
 10
3.744353326397861
 20
-2.330608633261082
 10
3.736520476180448
 20
-2.328614816842105
 10
3.727195654493051
 20
-2.328614816842105
 10
3.700875921424844
 20
-2.328614816842105
 10
3.683385946783539
 20
-2.345440186010417
 10
3.683385946783539
 20
-2.374920185919589
 10
3.683385946783539
 20
-2.402406369409784
 10
3.699207626053862
 20
-2.420065886263588
 10
3.726531049020059
 20
-2.420065886263588
 10
3.735354025758461
 20
-2.420065886263588
 10
3.744353326397861
 20
-2.418228048680108
 10
3.750185578507796
 20
-2.415400084575639
 10
3.750185578507796
 20
-2.415400084575639
 10
3.753183084824762
 20
-2.426895046583012
 10
3.753183084824762
 20
-2.426895046583012
 97
        0
 75
     2
 76
     1
 98
        0
  0
ENDBLK
  5
1F7
330
1F4
100
AcDbEntity
  8
0
100
AcDbBlockEnd
  0
BLOCK
  5
1FC
330
1FA
100
AcDbEntity
  8
0
100
AcDbBlockBegin
  2
block 34
 70
     0
 71
     0
 10
0.0
 20
0.0
 30
0.0
  3
block 34
  1

  0
INSERT
  5
1FF
330
1FA
100
AcDbEntity
  8
Layer 1
100
AcDbBlockReference
  2
block 35
 10
0.0
 20
0.0
 30
0.0
  0
ENDBLK
  5
1FD
330
1FA
100
AcDbEntity
  8
0
100
AcDbBlockEnd
  0
BLOCK
  5
200
330
1FE
100
AcDbEntity
  8
0
100
AcDbBlockBegin
  2
block 35
 70
     0
 71
     0
 10
0.0
 20
0.0
 30
0.0
  3
block 35
  1

  0
INSERT
  5
203
330
1FE
100
AcDbEntity
  8
Layer 1
100
AcDbBlockReference
  2
block 36
 10
0.0
 20
0.0
 30
0.0
  0
ENDBLK
  5
201
330
1FE
100
AcDbEntity
  8
0
100
AcDbBlockEnd
  0
BLOCK
  5
204
330
202
100
AcDbEntity
  8
0
100
AcDbBlockBegin
  2
block 36
 70
     0
 71
     0
 10
0.0
 20
0.0
 30
0.0
  3
block 36
  1

  0
SPLINE
  5
206
330
202
100
AcDbEntity
  8
Layer 1
 62
     7
420
 16777215
370
     9
100
AcDbSpline
210
0.0
220
0.0
230
1.0
 70
    11
 71
     3
 72
    14
 73
    10
 74
     0
 42
0.0000000001
 43
0.0000000001
 40
0.0
 40
0.0
 40
0.0
 40
0.0
 40
1.0
 40
1.0
 40
1.0
 40
2.0
 40
2.0
 40
2.0
 40
3.0
 40
3.0
 40
3.0
 40
3.0
 10
5.259287593642013
 20
-4.43683832081366
 30
0.0
 10
5.254737080658564
 20
-4.417090043901879
 30
0.0
 10
5.256608826684543
 20
-4.394330697296132
 30
0.0
 10
5.266055718764938
 20
-4.377444292931321
 30
0.0
 10
5.37385743915974
 20
-4.338042682746758
 30
0.0
 10
5.429202799007624
 20
-4.471560565933274
 30
0.0
 10
5.443362964595466
 20
-4.554812573958348
 30
0.0
 10
5.372697770426252
 20
-4.541371267351497
 30
0.0
 10
5.285620890087221
 20
-4.511599654836829
 30
0.0
 10
5.259287593642013
 20
-4.43683832081366
 30
0.0
  0
SPLINE
  5
207
330
202
100
AcDbEntity
  8
Layer 1
 62
     7
420
 16777215
370
     9
100
AcDbSpline
210
0.0
220
0.0
230
1.0
 70
    11
 71
     3
 72
    14
 73
    10
 74
     0
 42
0.0000000001
 43
0.0000000001
 40
0.0
 40
0.0
 40
0.0
 40
0.0
 40
1.0
 40
1.0
 40
1.0
 40
2.0
 40
2.0
 40
2.0
 40
3.0
 40
3.0
 40
3.0
 40
3.0
 10
5.808909538118401
 20
-4.93047742672317
 30
0.0
 10
5.825104210256221
 20
-5.010379280629282
 30
0.0
 10
5.882952013160578
 20
-5.138295489114859
 30
0.0
 10
5.985355509509439
 20
-5.096737301987321
 30
0.0
 10
6.024594359170003
 20
-4.988881328084521
 30
0.0
 10
5.891551194178483
 20
-4.933691947072134
 30
0.0
 10
5.808014355236412
 20
-4.919423274468294
 30
0.0
 10
5.806915721699424
 20
-4.922569977932258
 30
0.0
 10
5.807186989239421
 20
-4.927317159882206
 30
0.0
 10
5.808909538118401
 20
-4.93047742672317
 30
0.0
  0
SPLINE
  5
208
330
202
100
AcDbEntity
  8
Layer 1
 62
     7
420
 16777215
370
     9
100
AcDbSpline
210
0.0
220
0.0
230
1.0
 70
    11
 71
     3
 72
    17
 73
    13
 74
     0
 42
0.0000000001
 43
0.0000000001
 40
0.0
 40
0.0
 40
0.0
 40
0.0
 40
1.0
 40
1.0
 40
1.0
 40
2.0
 40
2.0
 40
2.0
 40
3.0
 40
3.0
 40
3.0
 40
4.0
 40
4.0
 40
4.0
 40
4.0
 10
5.487023475157981
 20
-4.308338887117089
 30
0.0
 10
5.489668333672951
 20
-4.449764219094516
 30
0.0
 10
5.55185641721726
 20
-4.576893751714103
 30
0.0
 10
5.625668314850439
 20
-4.690609104480838
 30
0.0
 10
5.728343078739297
 20
-4.54029976056851
 30
0.0
 10
5.852149583993921
 20
-4.28216156950738
 30
0.0
 10
5.672177134582922
 20
-4.135907675318006
 30
0.0
 10
5.656118096215101
 20
-4.128529198230089
 30
0.0
 10
5.642473338953252
 20
-4.115413412671234
 30
0.0
 10
5.624406920789453
 20
-4.112443033108267
 30
0.0
 10
5.544545757014341
 20
-4.144520419712911
 30
0.0
 10
5.489519136525954
 20
-4.220936485730061
 30
0.0
 10
5.487023475157981
 20
-4.308338887117089
 30
0.0
  0
SPLINE
  5
209
330
202
100
AcDbEntity
  8
Layer 1
 62
     7
420
 16777215
370
     9
100
AcDbSpline
210
0.0
220
0.0
230
1.0
 70
    11
 71
     3
 72
    11
 73
     7
 74
     0
 42
0.0000000001
 43
0.0000000001
 40
0.0
 40
0.0
 40
0.0
 40
0.0
 40
1.0
 40
1.0
 40
1.0
 40
2.0
 40
2.0
 40
2.0
 40
2.0
 10
5.822906943182246
 20
-4.544979125633457
 30
0.0
 10
5.828061026442189
 20
-4.465714750446339
 30
0.0
 10
5.891225673130486
 20
-4.325130347842902
 30
0.0
 10
5.9978880698573
 20
-4.367448084082431
 30
0.0
 10
6.037560947581858
 20
-4.473771396384249
 30
0.0
 10
5.904531345967338
 20
-4.529489749099629
 30
0.0
 10
5.822906943182246
 20
-4.544979125633457
 30
0.0
  0
SPLINE
  5
20A
330
202
100
AcDbEntity
  8
Layer 1
 62
     7
420
 16777215
370
     9
100
AcDbSpline
210
0.0
220
0.0
230
1.0
 70
    11
 71
     3
 72
    14
 73
    10
 74
     0
 42
0.0000000001
 43
0.0000000001
 40
0.0
 40
0.0
 40
0.0
 40
0.0
 40
1.0
 40
1.0
 40
1.0
 40
2.0
 40
2.0
 40
2.0
 40
3.0
 40
3.0
 40
3.0
 40
3.0
 10
5.001013768810886
 20
-4.735815840021335
 30
0.0
 10
5.002607465608368
 20
-4.770755099172947
 30
0.0
 10
5.035200260539005
 20
-4.802615471745592
 30
0.0
 10
5.058942951977242
 20
-4.830515338234282
 30
0.0
 10
5.223202229133915
 20
-4.943633902413024
 30
0.0
 10
5.431115235164603
 20
-4.830813732528278
 30
0.0
 10
5.576528199979986
 20
-4.742082120195265
 30
0.0
 10
5.422828011817695
 20
-4.626752725565548
 30
0.0
 10
5.111968974358152
 20
-4.503407375128919
 30
0.0
 10
5.001013768810886
 20
-4.735815840021335
 30
0.0
  0
SPLINE
  5
20B
330
202
100
AcDbEntity
  8
Layer 1
 62
     7
420
 16777215
370
     9
100
AcDbSpline
210
0.0
220
0.0
230
1.0
 70
    11
 71
     3
 72
    11
 73
     7
 74
     0
 42
0.0000000001
 43
0.0000000001
 40
0.0
 40
0.0
 40
0.0
 40
0.0
 40
1.0
 40
1.0
 40
1.0
 40
2.0
 40
2.0
 40
2.0
 40
2.0
 10
5.677873752922858
 20
-4.74345202127225
 30
0.0
 10
5.822608548888249
 20
-4.626562838287549
 30
0.0
 10
6.147275104133638
 20
-4.501508502348941
 30
0.0
 10
6.255280275183438
 20
-4.741091993674276
 30
0.0
 10
6.146773259184644
 20
-4.980675484999612
 30
0.0
 10
5.836402503297096
 20
-4.853057670808031
 30
0.0
 10
5.677873752922858
 20
-4.74345202127225
 30
0.0
  0
SPLINE
  5
20C
330
202
100
AcDbEntity
  8
Layer 1
 62
     7
420
 16777215
370
     9
100
AcDbSpline
210
0.0
220
0.0
230
1.0
 70
    11
 71
     3
 72
    17
 73
    13
 74
     0
 42
0.0000000001
 43
0.0000000001
 40
0.0
 40
0.0
 40
0.0
 40
0.0
 40
1.0
 40
1.0
 40
1.0
 40
2.0
 40
2.0
 40
2.0
 40
3.0
 40
3.0
 40
3.0
 40
4.0
 40
4.0
 40
4.0
 40
4.0
 10
5.489573390033953
 20
-5.196387432805213
 30
0.0
 10
5.497535092332864
 20
-5.275177089797337
 30
0.0
 10
5.553321261933243
 20
-5.339345426383623
 30
0.0
 10
5.624664624952451
 20
-5.369266236045291
 30
0.0
 10
5.645728549433216
 20
-5.361792815318374
 30
0.0
 10
5.660471940232052
 20
-5.353858239773462
 30
0.0
 10
5.675839246372881
 20
-5.341949594767594
 30
0.0
 10
5.8539399497579
 20
-5.203928670417129
 30
0.0
 10
5.724870854227336
 20
-4.936418185849104
 30
0.0
 10
5.625749695112439
 20
-4.791222235065718
 30
0.0
 10
5.549686276897284
 20
-4.909711896536401
 30
0.0
 10
5.479658561447063
 20
-5.046227286039883
 30
0.0
 10
5.489573390033953
 20
-5.196387432805213
 30
0.0
  0
SPLINE
  5
20D
330
202
100
AcDbEntity
  8
Layer 1
 62
     7
420
 16777215
370
     9
100
AcDbSpline
210
0.0
220
0.0
230
1.0
 70
    11
 71
     3
 72
    14
 73
    10
 74
     0
 42
0.0000000001
 43
0.0000000001
 40
0.0
 40
0.0
 40
0.0
 40
0.0
 40
1.0
 40
1.0
 40
1.0
 40
2.0
 40
2.0
 40
2.0
 40
3.0
 40
3.0
 40
3.0
 40
3.0
 10
5.264373860016957
 20
-5.078074095235529
 30
0.0
 10
5.248348730091635
 20
-4.974165064039684
 30
0.0
 10
5.367848863148806
 20
-4.93319010212314
 30
0.0
 10
5.447472667826421
 20
-4.915856106317332
 30
0.0
 10
5.43588954386855
 20
-4.998226494837417
 30
0.0
 10
5.377885762128694
 20
-5.134063715490906
 30
0.0
 10
5.27036209096239
 20
-5.094987626354341
 30
0.0
 10
5.26680848618843
 20
-5.090376078174392
 30
0.0
 10
5.266544000336933
 20
-5.083702896690466
 30
0.0
 10
5.264373860016957
 20
-5.078074095235529
 30
0.0
  0
ENDBLK
  5
205
330
202
100
AcDbEntity
  8
0
100
AcDbBlockEnd
  0
BLOCK
  5
210
330
20E
100
AcDbEntity
  8
0
100
AcDbBlockBegin
  2
block 37
 70
     0
 71
     0
 10
0.0
 20
0.0
 30
0.0
  3
block 37
  1

  0
INSERT
  5
213
330
20E
100
AcDbEntity
  8
Layer 1
100
AcDbBlockReference
  2
block 38
 10
0.0
 20
0.0
 30
0.0
  0
ENDBLK
  5
211
330
20E
100
AcDbEntity
  8
0
100
AcDbBlockEnd
  0
BLOCK
  5
214
330
212
100
AcDbEntity
  8
0
100
AcDbBlockBegin
  2
block 38
 70
     0
 71
     0
 10
0.0
 20
0.0
 30
0.0
  3
block 38
  1

  0
INSERT
  5
217
330
212
100
AcDbEntity
  8
Layer 1
100
AcDbBlockReference
  2
block 39
 10
0.0
 20
0.0
 30
0.0
  0
ENDBLK
  5
215
330
212
100
AcDbEntity
  8
0
100
AcDbBlockEnd
  0
BLOCK
  5
218
330
216
100
AcDbEntity
  8
0
100
AcDbBlockBegin
  2
block 39
 70
     0
 71
     0
 10
0.0
 20
0.0
 30
0.0
  3
block 39
  1

  0
SPLINE
  5
21A
330
216
100
AcDbEntity
  8
Layer 1
 62
     7
420
 16777215
370
     9
100
AcDbSpline
210
0.0
220
0.0
230
1.0
 70
    11
 71
     3
 72
    14
 73
    10
 74
     0
 42
0.0000000001
 43
0.0000000001
 40
0.0
 40
0.0
 40
0.0
 40
0.0
 40
1.0
 40
1.0
 40
1.0
 40
2.0
 40
2.0
 40
2.0
 40
3.0
 40
3.0
 40
3.0
 40
3.0
 10
7.731504664470021
 20
-4.43683832081366
 30
0.0
 10
7.726960933175071
 20
-4.417090043901879
 30
0.0
 10
7.728832679201051
 20
-4.394330697296132
 30
0.0
 10
7.738286352969945
 20
-4.377444292931321
 30
0.0
 10
7.846088073364747
 20
-4.338042682746758
 30
0.0
 10
7.901426651524131
 20
-4.471560565933274
 30
0.0
 10
7.915586817111974
 20
-4.554812573958348
 30
0.0
 10
7.84492162294276
 20
-4.541371267351497
 30
0.0
 10
7.757844742603728
 20
-4.511599654836829
 30
0.0
 10
7.731504664470021
 20
-4.43683832081366
 30
0.0
  0
SPLINE
  5
21B
330
216
100
AcDbEntity
  8
Layer 1
 62
     7
420
 16777215
370
     9
100
AcDbSpline
210
0.0
220
0.0
230
1.0
 70
    11
 71
     3
 72
    14
 73
    10
 74
     0
 42
0.0000000001
 43
0.0000000001
 40
0.0
 40
0.0
 40
0.0
 40
0.0
 40
1.0
 40
1.0
 40
1.0
 40
2.0
 40
2.0
 40
2.0
 40
3.0
 40
3.0
 40
3.0
 40
3.0
 10
8.281133390634908
 20
-4.93047742672317
 30
0.0
 10
8.29732806277273
 20
-5.010379280629282
 30
0.0
 10
8.355175865677085
 20
-5.138295489114859
 30
0.0
 10
8.457579362025946
 20
-5.096737301987321
 30
0.0
 10
8.496818211686511
 20
-4.988881328084521
 30
0.0
 10
8.36377504669499
 20
-4.933691947072134
 30
0.0
 10
8.28023820775292
 20
-4.919423274468294
 30
0.0
 10
8.27913957421593
 20
-4.922569977932258
 30
0.0
 10
8.279410841755928
 20
-4.927317159882206
 30
0.0
 10
8.281133390634908
 20
-4.93047742672317
 30
0.0
  0
SPLINE
  5
21C
330
216
100
AcDbEntity
  8
Layer 1
 62
     7
420
 16777215
370
     9
100
AcDbSpline
210
0.0
220
0.0
230
1.0
 70
    11
 71
     3
 72
    17
 73
    13
 74
     0
 42
0.0000000001
 43
0.0000000001
 40
0.0
 40
0.0
 40
0.0
 40
0.0
 40
1.0
 40
1.0
 40
1.0
 40
2.0
 40
2.0
 40
2.0
 40
3.0
 40
3.0
 40
3.0
 40
4.0
 40
4.0
 40
4.0
 40
4.0
 10
7.959247327674489
 20
-4.308338887117089
 30
0.0
 10
7.961892186189459
 20
-4.449764219094516
 30
0.0
 10
8.024080269733767
 20
-4.576893751714103
 30
0.0
 10
8.097892167366947
 20
-4.690609104480838
 30
0.0
 10
8.200566931255805
 20
-4.54029976056851
 30
0.0
 10
8.324373436510427
 20
-4.28216156950738
 30
0.0
 10
8.144400987099429
 20
-4.135907675318006
 30
0.0
 10
8.128341948731608
 20
-4.128529198230089
 30
0.0
 10
8.11469719146976
 20
-4.115413412671234
 30
0.0
 10
8.09663077330596
 20
-4.112443033108267
 30
0.0
 10
8.016769609530849
 20
-4.144520419712911
 30
0.0
 10
7.96174298904246
 20
-4.220936485730061
 30
0.0
 10
7.959247327674489
 20
-4.308338887117089
 30
0.0
  0
SPLINE
  5
21D
330
216
100
AcDbEntity
  8
Layer 1
 62
     7
420
 16777215
370
     9
100
AcDbSpline
210
0.0
220
0.0
230
1.0
 70
    11
 71
     3
 72
    11
 73
     7
 74
     0
 42
0.0000000001
 43
0.0000000001
 40
0.0
 40
0.0
 40
0.0
 40
0.0
 40
1.0
 40
1.0
 40
1.0
 40
2.0
 40
2.0
 40
2.0
 40
2.0
 10
8.295130795698753
 20
-4.544979125633457
 30
0.0
 10
8.300284878958696
 20
-4.465714750446339
 30
0.0
 10
8.363449525646994
 20
-4.325130347842902
 30
0.0
 10
8.470111922373807
 20
-4.367448084082431
 30
0.0
 10
8.509784800098366
 20
-4.473771396384249
 30
0.0
 10
8.376755198483846
 20
-4.529489749099629
 30
0.0
 10
8.295130795698753
 20
-4.544979125633457
 30
0.0
  0
SPLINE
  5
21E
330
216
100
AcDbEntity
  8
Layer 1
 62
     7
420
 16777215
370
     9
100
AcDbSpline
210
0.0
220
0.0
230
1.0
 70
    11
 71
     3
 72
    14
 73
    10
 74
     0
 42
0.0000000001
 43
0.0000000001
 40
0.0
 40
0.0
 40
0.0
 40
0.0
 40
1.0
 40
1.0
 40
1.0
 40
2.0
 40
2.0
 40
2.0
 40
3.0
 40
3.0
 40
3.0
 40
3.0
 10
7.473230839638894
 20
-4.735815840021335
 30
0.0
 10
7.474831318124876
 20
-4.770755099172947
 30
0.0
 10
7.507424113055513
 20
-4.802615471745592
 30
0.0
 10
7.531173586182249
 20
-4.830515338234282
 30
0.0
 10
7.695426081650422
 20
-4.943633902413024
 30
0.0
 10
7.90333908768111
 20
-4.830813732528278
 30
0.0
 10
8.048752052496493
 20
-4.742082120195265
 30
0.0
 10
7.895051864334202
 20
-4.626752725565548
 30
0.0
 10
7.584192826874659
 20
-4.503407375128919
 30
0.0
 10
7.473230839638894
 20
-4.735815840021335
 30
0.0
  0
SPLINE
  5
21F
330
216
100
AcDbEntity
  8
Layer 1
 62
     7
420
 16777215
370
     9
100
AcDbSpline
210
0.0
220
0.0
230
1.0
 70
    11
 71
     3
 72
    11
 73
     7
 74
     0
 42
0.0000000001
 43
0.0000000001
 40
0.0
 40
0.0
 40
0.0
 40
0.0
 40
1.0
 40
1.0
 40
1.0
 40
2.0
 40
2.0
 40
2.0
 40
2.0
 10
8.150097605439367
 20
-4.74345202127225
 30
0.0
 10
8.294832401404756
 20
-4.626562838287549
 30
0.0
 10
8.619498956650146
 20
-4.501508502348941
 30
0.0
 10
8.727504127699945
 20
-4.741091993674276
 30
0.0
 10
8.618997111701152
 20
-4.980675484999612
 30
0.0
 10
8.308626355813603
 20
-4.853057670808031
 30
0.0
 10
8.150097605439367
 20
-4.74345202127225
 30
0.0
  0
SPLINE
  5
220
330
216
100
AcDbEntity
  8
Layer 1
 62
     7
420
 16777215
370
     9
100
AcDbSpline
210
0.0
220
0.0
230
1.0
 70
    11
 71
     3
 72
    17
 73
    13
 74
     0
 42
0.0000000001
 43
0.0000000001
 40
0.0
 40
0.0
 40
0.0
 40
0.0
 40
1.0
 40
1.0
 40
1.0
 40
2.0
 40
2.0
 40
2.0
 40
3.0
 40
3.0
 40
3.0
 40
4.0
 40
4.0
 40
4.0
 40
4.0
 10
7.96179724255046
 20
-5.196387432805213
 30
0.0
 10
7.969758944849372
 20
-5.275177089797337
 30
0.0
 10
8.02554511444975
 20
-5.339345426383623
 30
0.0
 10
8.096888477468958
 20
-5.369266236045291
 30
0.0
 10
8.117952401949724
 20
-5.361792815318374
 30
0.0
 10
8.13269579274856
 20
-5.353858239773462
 30
0.0
 10
8.148063098889388
 20
-5.341949594767594
 30
0.0
 10
8.326163802274408
 20
-5.203928670417129
 30
0.0
 10
8.197094706743844
 20
-4.936418185849104
 30
0.0
 10
8.097973547628946
 20
-4.791222235065718
 30
0.0
 10
8.021910129413792
 20
-4.909711896536401
 30
0.0
 10
7.95188241396357
 20
-5.046227286039883
 30
0.0
 10
7.96179724255046
 20
-5.196387432805213
 30
0.0
  0
SPLINE
  5
221
330
216
100
AcDbEntity
  8
Layer 1
 62
     7
420
 16777215
370
     9
100
AcDbSpline
210
0.0
220
0.0
230
1.0
 70
    11
 71
     3
 72
    14
 73
    10
 74
     0
 42
0.0000000001
 43
0.0000000001
 40
0.0
 40
0.0
 40
0.0
 40
0.0
 40
1.0
 40
1.0
 40
1.0
 40
2.0
 40
2.0
 40
2.0
 40
3.0
 40
3.0
 40
3.0
 40
3.0
 10
7.736604494221965
 20
-5.078074095235529
 30
0.0
 10
7.720572582608143
 20
-4.974165064039684
 30
0.0
 10
7.840065933976814
 20
-4.93319010212314
 30
0.0
 10
7.919696520342928
 20
-4.915856106317332
 30
0.0
 10
7.908113396385057
 20
-4.998226494837417
 30
0.0
 10
7.850102832956702
 20
-5.134063715490906
 30
0.0
 10
7.742585943478898
 20
-5.094987626354341
 30
0.0
 10
7.739032338704938
 20
-5.090376078174392
 30
0.0
 10
7.73877463454194
 20
-5.083702896690466
 30
0.0
 10
7.736604494221965
 20
-5.078074095235529
 30
0.0
  0
ENDBLK
  5
219
330
216
100
AcDbEntity
  8
0
100
AcDbBlockEnd
  0
ENDSEC
  0
SECTION
  2
ENTITIES
  0
SPLINE
  5
3C
330
1F
100
AcDbEntity
  8
Layer 1
 62
   179
420
  2301728
370
    53
100
AcDbSpline
210
0.0
220
0.0
230
1.0
 70
    11
 71
     3
 72
    26
 73
    22
 74
     0
 42
0.0000000001
 43
0.0000000001
 40
0.0
 40
0.0
 40
0.0
 40
0.0
 40
1.0
 40
1.0
 40
1.0
 40
2.0
 40
2.0
 40
2.0
 40
3.0
 40
3.0
 40
3.0
 40
4.0
 40
4.0
 40
4.0
 40
5.0
 40
5.0
 40
5.0
 40
6.0
 40
6.0
 40
6.0
 40
7.0
 40
7.0
 40
7.0
 40
7.0
 10
9.482943536460544
 20
-2.750001813473419
 30
0.0
 10
9.482943536460544
 20
-3.369346297417531
 30
0.0
 10
8.311189834066575
 20
-3.871421823820948
 30
0.0
 10
6.865754310569649
 20
-3.871421823820948
 30
0.0
 10
5.420325568761223
 20
-3.871421823820948
 30
0.0
 10
4.248571866367254
 20
-3.369346297417531
 30
0.0
 10
4.248571866367254
 20
-2.750001813473419
 30
0.0
 10
4.248571866367254
 20
-2.750001813473419
 30
0.0
 10
3.560196575182408
 20
-2.750001813473419
 30
0.0
 10
3.560196575182408
 20
-2.750001813473419
 30
0.0
 10
3.560196575182408
 20
-2.750001813473419
 30
0.0
 10
3.560196575182408
 20
-5.750003791808057
 30
0.0
 10
3.560196575182408
 20
-5.750003791808057
 30
0.0
 10
3.560196575182408
 20
-5.750003791808057
 30
0.0
 10
10.17131204595689
 20
-5.750003791808057
 30
0.0
 10
10.17131204595689
 20
-5.750003791808057
 30
0.0
 10
10.17131204595689
 20
-5.750003791808057
 30
0.0
 10
10.17131204595689
 20
-2.750001813473419
 30
0.0
 10
10.17131204595689
 20
-2.750001813473419
 30
0.0
 10
10.17131204595689
 20
-2.750001813473419
 30
0.0
 10
9.482943536460544
 20
-2.750001813473419
 30
0.0
 10
9.482943536460544
 20
-2.750001813473419
 30
0.0
  0
HATCH
  5
3D
330
1F
100
AcDbEntity
  8
Layer 1
 62
   178
420
        0
100
AcDbHatch
 10
0.0
 20
0.0
 30
0.0
210
0.0
220
0.0
230
1.0
  2
SOLID
 70
     1
 71
     0
 91
        1
 92
        1
 93
        1
 72
     4
 94
        3
 73
     0
 74
     1
 95
       26
 96
       22
 40
0.0
 40
0.0
 40
0.0
 40
0.0
 40
1.0
 40
1.0
 40
1.0
 40
2.0
 40
2.0
 40
2.0
 40
3.0
 40
3.0
 40
3.0
 40
4.0
 40
4.0
 40
4.0
 40
5.0
 40
5.0
 40
5.0
 40
6.0
 40
6.0
 40
6.0
 40
7.0
 40
7.0
 40
7.0
 40
7.0
 10
9.482943536460544
 20
-2.750001813473419
 10
9.482943536460544
 20
-3.369346297417531
 10
8.311189834066575
 20
-3.871421823820948
 10
6.865754310569649
 20
-3.871421823820948
 10
5.420325568761223
 20
-3.871421823820948
 10
4.248571866367254
 20
-3.369346297417531
 10
4.248571866367254
 20
-2.750001813473419
 10
4.248571866367254
 20
-2.750001813473419
 10
3.560196575182408
 20
-2.750001813473419
 10
3.560196575182408
 20
-2.750001813473419
 10
3.560196575182408
 20
-2.750001813473419
 10
3.560196575182408
 20
-5.750003791808057
 10
3.560196575182408
 20
-5.750003791808057
 10
3.560196575182408
 20
-5.750003791808057
 10
10.17131204595689
 20
-5.750003791808057
 10
10.17131204595689
 20
-5.750003791808057
 10
10.17131204595689
 20
-5.750003791808057
 10
10.17131204595689
 20
-2.750001813473419
 10
10.17131204595689
 20
-2.750001813473419
 10
10.17131204595689
 20
-2.750001813473419
 10
9.482943536460544
 20
-2.750001813473419
 10
9.482943536460544
 20
-2.750001813473419
 97
        0
 75
     2
 76
     1
 98
        0
  0
INSERT
  5
3F
330
1F
100
AcDbEntity
  8
Layer 1
100
AcDbBlockReference
  2
block 2
 10
0.0
 20
0.0
 30
0.0
  0
POLYLINE
  5
76
330
1F
100
AcDbEntity
  8
Layer 1
 62
   179
420
  2301728
370
    18
100
AcDb2dPolyline
 66
     1
 10
0.0
 20
0.0
 30
0.0
  0
VERTEX
  5
77
330
76
100
AcDbEntity
  8
Layer 1
 62
   179
420
  2301728
370
    18
100
AcDbVertex
100
AcDb2dVertex
 10
3.562502349272383
 20
-2.750001813473419
 30
0.0
  0
VERTEX
  5
78
330
76
100
AcDbEntity
  8
Layer 1
 62
   179
420
  2301728
370
    18
100
AcDbVertex
100
AcDb2dVertex
 10
0.5625003709377446
 20
-2.750001813473419
 30
0.0
  0
VERTEX
  5
79
330
76
100
AcDbEntity
  8
Layer 1
 62
   179
420
  2301728
370
    18
100
AcDbVertex
100
AcDb2dVertex
 10
0.5625003709377446
 20
-2.111112503272523
 30
0.0
  0
VERTEX
  5
7A
330
76
100
AcDbEntity
  8
Layer 1
 62
   179
420
  2301728
370
    18
100
AcDbVertex
100
AcDb2dVertex
 10
3.562502349272383
 20
-2.111112503272523
 30
0.0
  0
VERTEX
  5
7B
330
76
100
AcDbEntity
  8
Layer 1
 62
   179
420
  2301728
370
    18
100
AcDbVertex
100
AcDb2dVertex
 10
3.562502349272383
 20
-2.750001813473419
 30
0.0
  0
SEQEND
  5
7C
330
76
100
AcDbEntity
  8
Layer 1
370
    18
  0
HATCH
  5
7D
330
1F
100
AcDbEntity
  8
Layer 1
 62
   178
420
        0
100
AcDbHatch
 10
0.0
 20
0.0
 30
0.0
210
0.0
220
0.0
230
1.0
  2
SOLID
 70
     1
 71
     0
 91
        1
 92
        1
 93
        4
 72
     1
 10
3.562502349272383
 20
-2.750001813473419
 11
0.5625003709377445
 21
-2.750001813473419
 72
     1
 10
0.5625003709377446
 20
-2.750001813473419
 11
0.5625003709377446
 21
-2.111112503272523
 72
     1
 10
0.5625003709377446
 20
-2.111112503272523
 11
3.562502349272383
 21
-2.111112503272523
 72
     1
 10
3.562502349272383
 20
-2.111112503272523
 11
3.562502349272383
 21
-2.750001813473419
 97
        0
 75
     2
 76
     1
 98
        0
  0
POLYLINE
  5
7E
330
1F
100
AcDbEntity
  8
Layer 1
 62
   179
420
  2301728
370
    18
100
AcDb2dPolyline
 66
     1
 10
0.0
 20
0.0
 30
0.0
  0
VERTEX
  5
7F
330
7E
100
AcDbEntity
  8
Layer 1
 62
   179
420
  2301728
370
    18
100
AcDbVertex
100
AcDb2dVertex
 10
3.562502349272383
 20
-6.388893102008952
 30
0.0
  0
VERTEX
  5
80
330
7E
100
AcDbEntity
  8
Layer 1
 62
   179
420
  2301728
370
    18
100
AcDbVertex
100
AcDb2dVertex
 10
0.5625003709377446
 20
-6.388893102008952
 30
0.0
  0
VERTEX
  5
81
330
7E
100
AcDbEntity
  8
Layer 1
 62
   179
420
  2301728
370
    18
100
AcDbVertex
100
AcDb2dVertex
 10
0.5625003709377446
 20
-5.750003791808057
 30
0.0
  0
VERTEX
  5
82
330
7E
100
AcDbEntity
  8
Layer 1
 62
   179
420
  2301728
370
    18
100
AcDbVertex
100
AcDb2dVertex
 10
3.562502349272383
 20
-5.750003791808057
 30
0.0
  0
VERTEX
  5
83
330
7E
100
AcDbEntity
  8
Layer 1
 62
   179
420
  2301728
370
    18
100
AcDbVertex
100
AcDb2dVertex
 10
3.562502349272383
 20
-6.388893102008952
 30
0.0
  0
SEQEND
  5
84
330
7E
100
AcDbEntity
  8
Layer 1
370
    18
  0
HATCH
  5
85
330
1F
100
AcDbEntity
  8
Layer 1
 62
   178
420
        0
100
AcDbHatch
 10
0.0
 20
0.0
 30
0.0
210
0.0
220
0.0
230
1.0
  2
SOLID
 70
     1
 71
     0
 91
        1
 92
        1
 93
        4
 72
     1
 10
3.562502349272383
 20
-6.388893102008952
 11
0.5625003709377445
 21
-6.388893102008952
 72
     1
 10
0.5625003709377446
 20
-6.388893102008952
 11
0.5625003709377446
 21
-5.750003791808057
 72
     1
 10
0.5625003709377446
 20
-5.750003791808057
 11
3.562502349272383
 21
-5.750003791808057
 72
     1
 10
3.562502349272383
 20
-5.750003791808057
 11
3.562502349272383
 21
-6.388893102008952
 97
        0
 75
     2
 76
     1
 98
        0
  0
POLYLINE
  5
86
330
1F
100
AcDbEntity
  8
Layer 1
 62
   179
420
  2301728
370
    15
100
AcDb2dPolyline
 66
     1
 10
0.0
 20
0.0
 30
0.0
  0
VERTEX
  5
87
330
86
100
AcDbEntity
  8
Layer 1
 62
   179
420
  2301728
370
    15
100
AcDbVertex
100
AcDb2dVertex
 10
10.17131204595689
 20
-5.750003791808057
 30
0.0
  0
VERTEX
  5
88
330
86
100
AcDbEntity
  8
Layer 1
 62
   179
420
  2301728
370
    15
100
AcDbVertex
100
AcDb2dVertex
 10
10.17131204595689
 20
-5.750003791808057
 30
0.0
  0
VERTEX
  5
89
330
86
100
AcDbEntity
  8
Layer 1
 62
   179
420
  2301728
370
    15
100
AcDbVertex
100
AcDb2dVertex
 10
10.17131204595689
 20
-2.750001813473419
 30
0.0
  0
VERTEX
  5
8A
330
86
100
AcDbEntity
  8
Layer 1
 62
   179
420
  2301728
370
    15
100
AcDbVertex
100
AcDb2dVertex
 10
10.17131204595689
 20
-2.750001813473419
 30
0.0
  0
VERTEX
  5
8B
330
86
100
AcDbEntity
  8
Layer 1
 62
   179
420
  2301728
370
    15
100
AcDbVertex
100
AcDb2dVertex
 10
10.78242356006209
 20
-3.027779774430329
 30
0.0
  0
VERTEX
  5
8C
330
86
100
AcDbEntity
  8
Layer 1
 62
   179
420
  2301728
370
    15
100
AcDbVertex
100
AcDb2dVertex
 10
10.78242356006209
 20
-5.444448034755455
 30
0.0
  0
VERTEX
  5
8D
330
86
100
AcDbEntity
  8
Layer 1
 62
   179
420
  2301728
370
    15
100
AcDbVertex
100
AcDb2dVertex
 10
10.17131204595689
 20
-5.750003791808057
 30
0.0
  0
SEQEND
  5
8E
330
86
100
AcDbEntity
  8
Layer 1
370
    15
  0
HATCH
  5
8F
330
1F
100
AcDbEntity
  8
Layer 1
 62
   178
420
        0
100
AcDbHatch
 10
0.0
 20
0.0
 30
0.0
210
0.0
220
0.0
230
1.0
  2
SOLID
 70
     1
 71
     0
 91
        1
 92
        1
 93
        4
 72
     1
 10
10.17131204595689
 20
-5.750003791808057
 11
10.17131204595689
 21
-2.750001813473419
 72
     1
 10
10.17131204595689
 20
-2.750001813473419
 11
10.78242356006209
 21
-3.027779774430329
 72
     1
 10
10.78242356006209
 20
-3.027779774430329
 11
10.78242356006209
 21
-5.444448034755455
 72
     1
 10
10.78242356006209
 20
-5.444448034755455
 11
10.17131204595689
 21
-5.750003791808057
 97
        0
 75
     2
 76
     1
 98
        0
  0
POLYLINE
  5
90
330
1F
100
AcDbEntity
  8
Layer 1
 62
   179
420
  2301728
370
    18
100
AcDb2dPolyline
 66
     1
 10
0.0
 20
0.0
 30
0.0
  0
VERTEX
  5
91
330
90
100
AcDbEntity
  8
Layer 1
 62
   179
420
  2301728
370
    18
100
AcDbVertex
100
AcDb2dVertex
 10
3.562502349272383
 20
-2.111112503272523
 30
0.0
  0
VERTEX
  5
92
330
90
100
AcDbEntity
  8
Layer 1
 62
   179
420
  2301728
370
    18
100
AcDbVertex
100
AcDb2dVertex
 10
3.93057171091729
 20
-2.111112503272523
 30
0.0
  0
VERTEX
  5
93
330
90
100
AcDbEntity
  8
Layer 1
 62
   179
420
  2301728
370
    18
100
AcDbVertex
100
AcDb2dVertex
 10
3.93057171091729
 20
-2.601869391569566
 30
0.0
  0
VERTEX
  5
94
330
90
100
AcDbEntity
  8
Layer 1
 62
   179
420
  2301728
370
    18
100
AcDbVertex
100
AcDb2dVertex
 10
3.562502349272383
 20
-2.750001813473419
 30
0.0
  0
VERTEX
  5
95
330
90
100
AcDbEntity
  8
Layer 1
 62
   179
420
  2301728
370
    18
100
AcDbVertex
100
AcDb2dVertex
 10
3.562502349272383
 20
-2.111112503272523
 30
0.0
  0
SEQEND
  5
96
330
90
100
AcDbEntity
  8
Layer 1
370
    18
  0
HATCH
  5
97
330
1F
100
AcDbEntity
  8
Layer 1
 62
   178
420
        0
100
AcDbHatch
 10
0.0
 20
0.0
 30
0.0
210
0.0
220
0.0
230
1.0
  2
SOLID
 70
     1
 71
     0
 91
        1
 92
        1
 93
        4
 72
     1
 10
3.562502349272383
 20
-2.111112503272523
 11
3.93057171091729
 21
-2.111112503272523
 72
     1
 10
3.93057171091729
 20
-2.111112503272523
 11
3.93057171091729
 21
-2.601869391569566
 72
     1
 10
3.93057171091729
 20
-2.601869391569566
 11
3.562502349272383
 21
-2.750001813473419
 72
     1
 10
3.562502349272383
 20
-2.750001813473419
 11
3.562502349272383
 21
-2.111112503272523
 97
        0
 75
     2
 76
     1
 98
        0
  0
POLYLINE
  5
98
330
1F
100
AcDbEntity
  8
Layer 1
 62
   179
420
  2301728
370
    18
100
AcDb2dPolyline
 66
     1
 10
0.0
 20
0.0
 30
0.0
  0
VERTEX
  5
99
330
98
100
AcDbEntity
  8
Layer 1
 62
   179
420
  2301728
370
    18
100
AcDbVertex
100
AcDb2dVertex
 10
0.5625003709377446
 20
-2.111112503272523
 30
0.0
  0
VERTEX
  5
9A
330
98
100
AcDbEntity
  8
Layer 1
 62
   179
420
  2301728
370
    18
100
AcDbVertex
100
AcDb2dVertex
 10
0.1944310092928378
 20
-2.111112503272523
 30
0.0
  0
VERTEX
  5
9B
330
98
100
AcDbEntity
  8
Layer 1
 62
   179
420
  2301728
370
    18
100
AcDbVertex
100
AcDb2dVertex
 10
0.1944310092928378
 20
-2.601869391569566
 30
0.0
  0
VERTEX
  5
9C
330
98
100
AcDbEntity
  8
Layer 1
 62
   179
420
  2301728
370
    18
100
AcDbVertex
100
AcDb2dVertex
 10
0.5625003709377446
 20
-2.750001813473419
 30
0.0
  0
VERTEX
  5
9D
330
98
100
AcDbEntity
  8
Layer 1
 62
   179
420
  2301728
370
    18
100
AcDbVertex
100
AcDb2dVertex
 10
0.5625003709377446
 20
-2.111112503272523
 30
0.0
  0
SEQEND
  5
9E
330
98
100
AcDbEntity
  8
Layer 1
370
    18
  0
HATCH
  5
9F
330
1F
100
AcDbEntity
  8
Layer 1
 62
   178
420
        0
100
AcDbHatch
 10
0.0
 20
0.0
 30
0.0
210
0.0
220
0.0
230
1.0
  2
SOLID
 70
     1
 71
     0
 91
        1
 92
        1
 93
        4
 72
     1
 10
0.5625003709377446
 20
-2.111112503272523
 11
0.1944310092928378
 21
-2.111112503272523
 72
     1
 10
0.1944310092928378
 20
-2.111112503272523
 11
0.1944310092928378
 21
-2.601869391569566
 72
     1
 10
0.1944310092928378
 20
-2.601869391569566
 11
0.5625003709377446
 21
-2.750001813473419
 72
     1
 10
0.5625003709377446
 20
-2.750001813473419
 11
0.5625003709377446
 21
-2.111112503272523
 97
        0
 75
     2
 76
     1
 98
        0
  0
POLYLINE
  5
A0
330
1F
100
AcDbEntity
  8
Layer 1
 62
   179
420
  2301728
370
    18
100
AcDb2dPolyline
 66
     1
 10
0.0
 20
0.0
 30
0.0
  0
VERTEX
  5
A1
330
A0
100
AcDbEntity
  8
Layer 1
 62
   179
420
  2301728
370
    18
100
AcDbVertex
100
AcDb2dVertex
 10
3.562502349272383
 20
-6.388893102008952
 30
0.0
  0
VERTEX
  5
A2
330
A0
100
AcDbEntity
  8
Layer 1
 62
   179
420
  2301728
370
    18
100
AcDbVertex
100
AcDb2dVertex
 10
3.93057171091729
 20
-6.388893102008952
 30
0.0
  0
VERTEX
  5
A3
330
A0
100
AcDbEntity
  8
Layer 1
 62
   179
420
  2301728
370
    18
100
AcDbVertex
100
AcDb2dVertex
 10
3.93057171091729
 20
-5.898129432023409
 30
0.0
  0
VERTEX
  5
A4
330
A0
100
AcDbEntity
  8
Layer 1
 62
   179
420
  2301728
370
    18
100
AcDbVertex
100
AcDb2dVertex
 10
3.562502349272383
 20
-5.750003791808057
 30
0.0
  0
VERTEX
  5
A5
330
A0
100
AcDbEntity
  8
Layer 1
 62
   179
420
  2301728
370
    18
100
AcDbVertex
100
AcDb2dVertex
 10
3.562502349272383
 20
-6.388893102008952
 30
0.0
  0
SEQEND
  5
A6
330
A0
100
AcDbEntity
  8
Layer 1
370
    18
  0
HATCH
  5
A7
330
1F
100
AcDbEntity
  8
Layer 1
 62
   178
420
        0
100
AcDbHatch
 10
0.0
 20
0.0
 30
0.0
210
0.0
220
0.0
230
1.0
  2
SOLID
 70
     1
 71
     0
 91
        1
 92
        1
 93
        4
 72
     1
 10
3.562502349272383
 20
-6.388893102008952
 11
3.93057171091729
 21
-6.388893102008952
 72
     1
 10
3.93057171091729
 20
-6.388893102008952
 11
3.93057171091729
 21
-5.898129432023409
 72
     1
 10
3.93057171091729
 20
-5.898129432023409
 11
3.562502349272383
 21
-5.750003791808057
 72
     1
 10
3.562502349272383
 20
-5.750003791808057
 11
3.562502349272383
 21
-6.388893102008952
 97
        0
 75
     2
 76
     1
 98
        0
  0
POLYLINE
  5
A8
330
1F
100
AcDbEntity
  8
Layer 1
 62
   179
420
  2301728
370
    18
100
AcDb2dPolyline
 66
     1
 10
0.0
 20
0.0
 30
0.0
  0
VERTEX
  5
A9
330
A8
100
AcDbEntity
  8
Layer 1
 62
   179
420
  2301728
370
    18
100
AcDbVertex
100
AcDb2dVertex
 10
0.5625003709377446
 20
-6.388893102008952
 30
0.0
  0
VERTEX
  5
AA
330
A8
100
AcDbEntity
  8
Layer 1
 62
   179
420
  2301728
370
    18
100
AcDbVertex
100
AcDb2dVertex
 10
0.1944310092928378
 20
-6.388893102008952
 30
0.0
  0
VERTEX
  5
AB
330
A8
100
AcDbEntity
  8
Layer 1
 62
   179
420
  2301728
370
    18
100
AcDbVertex
100
AcDb2dVertex
 10
0.1944310092928378
 20
-5.898129432023409
 30
0.0
  0
VERTEX
  5
AC
330
A8
100
AcDbEntity
  8
Layer 1
 62
   179
420
  2301728
370
    18
100
AcDbVertex
100
AcDb2dVertex
 10
0.5625003709377446
 20
-5.750003791808057
 30
0.0
  0
VERTEX
  5
AD
330
A8
100
AcDbEntity
  8
Layer 1
 62
   179
420
  2301728
370
    18
100
AcDbVertex
100
AcDb2dVertex
 10
0.5625003709377446
 20
-6.388893102008952
 30
0.0
  0
SEQEND
  5
AE
330
A8
100
AcDbEntity
  8
Layer 1
370
    18
  0
HATCH
  5
AF
330
1F
100
AcDbEntity
  8
Layer 1
 62
   178
420
        0
100
AcDbHatch
 10
0.0
 20
0.0
 30
0.0
210
0.0
220
0.0
230
1.0
  2
SOLID
 70
     1
 71
     0
 91
        1
 92
        1
 93
        4
 72
     1
 10
0.5625003709377446
 20
-6.388893102008952
 11
0.1944310092928378
 21
-6.388893102008952
 72
     1
 10
0.1944310092928378
 20
-6.388893102008952
 11
0.1944310092928378
 21
-5.898129432023409
 72
     1
 10
0.1944310092928378
 20
-5.898129432023409
 11
0.5625003709377446
 21
-5.750003791808057
 72
     1
 10
0.5625003709377446
 20
-5.750003791808057
 11
0.5625003709377446
 21
-6.388893102008952
 97
        0
 75
     2
 76
     1
 98
        0
  0
INSERT
  5
B1
330
1F
100
AcDbEntity
  8
Layer 1
100
AcDbBlockReference
  2
block 4
 10
0.0
 20
0.0
 30
0.0
  0
INSERT
  5
C6
330
1F
100
AcDbEntity
  8
Layer 1
100
AcDbBlockReference
  2
block 6
 10
0.0
 20
0.0
 30
0.0
  0
INSERT
  5
DB
330
1F
100
AcDbEntity
  8
Layer 1
100
AcDbBlockReference
  2
block 8
 10
0.0
 20
0.0
 30
0.0
  0
INSERT
  5
F0
330
1F
100
AcDbEntity
  8
Layer 1
100
AcDbBlockReference
  2
block 10
 10
0.0
 20
0.0
 30
0.0
  0
INSERT
  5
105
330
1F
100
AcDbEntity
  8
Layer 1
100
AcDbBlockReference
  2
block 12
 10
0.0
 20
0.0
 30
0.0
  0
INSERT
  5
11A
330
1F
100
AcDbEntity
  8
Layer 1
100
AcDbBlockReference
  2
block 14
 10
0.0
 20
0.0
 30
0.0
  0
INSERT
  5
12F
330
1F
100
AcDbEntity
  8
Layer 1
100
AcDbBlockReference
  2
block 16
 10
0.0
 20
0.0
 30
0.0
  0
INSERT
  5
144
330
1F
100
AcDbEntity
  8
Layer 1
100
AcDbBlockReference
  2
block 18
 10
0.0
 20
0.0
 30
0.0
  0
INSERT
  5
159
330
1F
100
AcDbEntity
  8
Layer 1
100
AcDbBlockReference
  2
block 20
 10
0.0
 20
0.0
 30
0.0
  0
INSERT
  5
16E
330
1F
100
AcDbEntity
  8
Layer 1
100
AcDbBlockReference
  2
block 22
 10
0.0
 20
0.0
 30
0.0
  0
POLYLINE
  5
182
330
1F
100
AcDbEntity
  8
Layer 1
 62
   179
420
  2301728
370
    50
100
AcDb2dPolyline
 66
     1
 10
0.0
 20
0.0
 30
0.0
  0
VERTEX
  5
183
330
182
100
AcDbEntity
  8
Layer 1
 62
   179
420
  2301728
370
    50
100
AcDbVertex
100
AcDb2dVertex
 10
0.5625003709377446
 20
-2.750001813473419
 30
0.0
  0
VERTEX
  5
184
330
182
100
AcDbEntity
  8
Layer 1
 62
   179
420
  2301728
370
    50
100
AcDbVertex
100
AcDb2dVertex
 10
0.5625003709377446
 20
-5.750003791808057
 30
0.0
  0
SEQEND
  5
185
330
182
100
AcDbEntity
  8
Layer 1
370
    50
  0
INSERT
  5
187
330
1F
100
AcDbEntity
  8
Layer 1
100
AcDbBlockReference
  2
block 24
 10
0.0
 20
0.0
 30
0.0
  0
INSERT
  5
198
330
1F
100
AcDbEntity
  8
Layer 1
100
AcDbBlockReference
  2
block 25
 10
0.0
 20
0.0
 30
0.0
  0
INSERT
  5
1A0
330
1F
100
AcDbEntity
  8
Layer 1
100
AcDbBlockReference
  2
block 26
 10
0.0
 20
0.0
 30
0.0
  0
INSERT
  5
1B4
330
1F
100
AcDbEntity
  8
Layer 1
100
AcDbBlockReference
  2
block 27
 10
0.0
 20
0.0
 30
0.0
  0
INSERT
  5
1C5
330
1F
100
AcDbEntity
  8
Layer 1
100
AcDbBlockReference
  2
block 28
 10
0.0
 20
0.0
 30
0.0
  0
INSERT
  5
1CD
330
1F
100
AcDbEntity
  8
Layer 1
100
AcDbBlockReference
  2
block 29
 10
0.0
 20
0.0
 30
0.0
  0
INSERT
  5
1E1
330
1F
100
AcDbEntity
  8
Layer 1
100
AcDbBlockReference
  2
block 30
 10
0.0
 20
0.0
 30
0.0
  0
INSERT
  5
1E8
330
1F
100
AcDbEntity
  8
Layer 1
100
AcDbBlockReference
  2
block 31
 10
0.0
 20
0.0
 30
0.0
  0
INSERT
  5
1EF
330
1F
100
AcDbEntity
  8
Layer 1
100
AcDbBlockReference
  2
block 32
 10
0.0
 20
0.0
 30
0.0
  0
INSERT
  5
1F5
330
1F
100
AcDbEntity
  8
Layer 1
100
AcDbBlockReference
  2
block 33
 10
0.0
 20
0.0
 30
0.0
  0
INSERT
  5
1FB
330
1F
100
AcDbEntity
  8
Layer 1
100
AcDbBlockReference
  2
block 34
 10
0.0
 20
0.0
 30
0.0
  0
INSERT
  5
20F
330
1F
100
AcDbEntity
  8
Layer 1
100
AcDbBlockReference
  2
block 37
 10
0.0
 20
0.0
 30
0.0
  0
ENDSEC
  0
SECTION
  2
OBJECTS
  0
DICTIONARY
  5
C
330
0
100
AcDbDictionary
281
     1
  3
ACAD_GROUP
350
D
  3
ACAD_LAYOUT
350
1A
  3
ACAD_MLINESTYLE
350
17
  3
ACAD_PLOTSETTINGS
350
19
  3
ACAD_PLOTSTYLENAME
350
E
  3
ACAD_TABLESTYLE
350
222
  3
ACAD_VISUALSTYLE
350
2A
  0
DICTIONARY
  5
D
102
{ACAD_REACTORS
330
C
102
}
330
C
100
AcDbDictionary
281
     1
  0
DICTIONARY
  5
1A
102
{ACAD_REACTORS
330
C
102
}
330
C
100
AcDbDictionary
281
     1
  3
Layout1
350
1E
  3
Layout2
350
26
  3
Model
350
22
  0
DICTIONARY
  5
17
102
{ACAD_REACTORS
330
C
102
}
330
C
100
AcDbDictionary
281
     1
  3
Standard
350
18
  0
DICTIONARY
  5
19
102
{ACAD_REACTORS
330
C
102
}
330
C
100
AcDbDictionary
281
     1
  0
ACDBDICTIONARYWDFLT
  5
E
102
{ACAD_REACTORS
330
C
102
}
330
C
100
AcDbDictionary
281
     1
  3
Normal
350
F
100
AcDbDictionaryWithDefault
340
F
  0
DICTIONARY
  5
222
102
{ACAD_REACTORS
330
C
102
}
330
C
100
AcDbDictionary
281
     1
  0
DICTIONARY
  5
2A
102
{ACAD_REACTORS
330
C
102
}
330
C
100
AcDbDictionary
281
     1
  3
2dWireframe
350
2F
  3
3D Hidden
350
31
  3
3dWireframe
350
30
  3
Basic
350
32
  3
Brighten
350
36
  3
ColorChange
350
3A
  3
Conceptual
350
34
  3
Dim
350
35
  3
Facepattern
350
39
  3
Flat
350
2B
  3
FlatWithEdges
350
2C
  3
Gouraud
350
2D
  3
GouraudWithEdges
350
2E
  3
Linepattern
350
38
  3
Realistic
350
33
  3
Thicken
350
37
  0
LAYOUT
  5
1E
102
{ACAD_REACTORS
330
1A
102
}
330
1A
100
AcDbPlotSettings
  1

  2
none_device
  4

  6

 40
0.0
 41
0.0
 42
0.0
 43
0.0
 44
0.0
 45
0.0
 46
0.0
 47
0.0
 48
0.0
 49
0.0
140
0.0
141
0.0
142
1.0
143
1.0
 70
   688
 72
     0
 73
     0
 74
     5
  7

 75
    16
 76
     0
 77
     2
 78
   300
147
1.0
148
0.0
149
0.0
100
AcDbLayout
  1
Layout1
 70
     1
 71
     1
 10
0.0
 20
0.0
 11
12.0
 21
9.0
 12
0.0
 22
0.0
 32
0.0
 14
1.000000000000000E+20
 24
1.000000000000000E+20
 34
1.000000000000000E+20
 15
-1.000000000000000E+20
 25
-1.000000000000000E+20
 35
-1.000000000000000E+20
146
0.0
 13
0.0
 23
0.0
 33
0.0
 16
1.0
 26
0.0
 36
0.0
 17
0.0
 27
1.0
 37
0.0
 76
     0
330
1B
  0
LAYOUT
  5
26
102
{ACAD_REACTORS
330
1A
102
}
330
1A
100
AcDbPlotSettings
  1

  2
none_device
  4

  6

 40
0.0
 41
0.0
 42
0.0
 43
0.0
 44
0.0
 45
0.0
 46
0.0
 47
0.0
 48
0.0
 49
0.0
140
0.0
141
0.0
142
1.0
143
1.0
 70
   688
 72
     0
 73
     0
 74
     5
  7

 75
    16
 76
     0
 77
     2
 78
   300
147
1.0
148
0.0
149
0.0
100
AcDbLayout
  1
Layout2
 70
     1
 71
     2
 10
0.0
 20
0.0
 11
0.0
 21
0.0
 12
0.0
 22
0.0
 32
0.0
 14
0.0
 24
0.0
 34
0.0
 15
0.0
 25
0.0
 35
0.0
146
0.0
 13
0.0
 23
0.0
 33
0.0
 16
1.0
 26
0.0
 36
0.0
 17
0.0
 27
1.0
 37
0.0
 76
     0
330
23
  0
LAYOUT
  5
22
102
{ACAD_REACTORS
330
1A
102
}
330
1A
100
AcDbPlotSettings
  1

  2
none_device
  4

  6

 40
0.0
 41
0.0
 42
0.0
 43
0.0
 44
0.0
 45
0.0
 46
0.0
 47
0.0
 48
0.0
 49
0.0
140
0.0
141
0.0
142
1.0
143
1.0
 70
  1712
 72
     0
 73
     0
 74
     0
  7

 75
     0
 76
     0
 77
     2
 78
   300
147
1.0
148
0.0
149
0.0
100
AcDbLayout
  1
Model
 70
     1
 71
     0
 10
0.0
 20
0.0
 11
12.0
 21
9.0
 12
0.0
 22
0.0
 32
0.0
 14
1.000000000000000E+20
 24
1.000000000000000E+20
 34
1.000000000000000E+20
 15
-1.000000000000000E+20
 25
-1.000000000000000E+20
 35
-1.000000000000000E+20
146
0.0
 13
0.0
 23
0.0
 33
0.0
 16
1.0
 26
0.0
 36
0.0
 17
0.0
 27
1.0
 37
0.0
 76
     0
330
1F
331
29
  0
MLINESTYLE
  5
18
102
{ACAD_REACTORS
330
17
102
}
330
17
100
AcDbMlineStyle
  2
Standard
 70
     0
  3

 62
   256
 51
90.0
 52
90.0
 71
     2
 49
0.5
 62
   256
  6
BYLAYER
 49
-0.5
 62
   256
  6
BYLAYER
  0
ACDBPLACEHOLDER
  5
F
102
{ACAD_REACTORS
330
E
102
}
330
E
  0
VISUALSTYLE
  5
2F
102
{ACAD_REACTORS
330
2A
102
}
330
2A
100
AcDbVisualStyle
  2
2dWireframe
 70
     4
 71
     0
 72
     2
 73
     0
 90
        0
 40
-0.6
 41
-30.0
 62
     5
 63
     7
421
 16777215
 74
     1
 91
        4
 64
     7
 65
   257
 75
     1
175
     1
 42
1.0
 92
        0
 66
   257
 43
1.0
 76
     1
 77
     6
 78
     2
 67
     7
 79
     5
170
     0
171
     0
290
     0
174
     0
 93
        1
 44
0.0
173
     0
291
     0
 45
0.0
1001
ACAD
1000
AcDbSavedByObjectVersion
1070
     0
  0
VISUALSTYLE
  5
31
102
{ACAD_REACTORS
330
2A
102
}
330
2A
100
AcDbVisualStyle
  2
3D Hidden
 70
     6
 71
     1
 72
     2
 73
     2
 90
        0
 40
-0.6
 41
-30.0
 62
     5
 63
     7
421
 16777215
 74
     2
 91
        2
 64
     7
 65
   257
 75
     2
175
     1
 42
40.0
 92
        0
 66
   257
 43
1.0
 76
     1
 77
     6
 78
     2
 67
     7
 79
     3
170
     0
171
     0
290
     0
174
     0
 93
        1
 44
0.0
173
     0
291
     0
 45
0.0
1001
ACAD
1000
AcDbSavedByObjectVersion
1070
     0
  0
VISUALSTYLE
  5
30
102
{ACAD_REACTORS
330
2A
102
}
330
2A
100
AcDbVisualStyle
  2
3dWireframe
 70
     5
 71
     0
 72
     2
 73
     0
 90
        0
 40
-0.6
 41
-30.0
 62
     5
 63
     7
421
 16777215
 74
     1
 91
        4
 64
     7
 65
   257
 75
     1
175
     1
 42
1.0
 92
        0
 66
   257
 43
1.0
 76
     1
 77
     6
 78
     2
 67
     7
 79
     5
170
     0
171
     0
290
     0
174
     0
 93
        1
 44
0.0
173
     0
291
     0
 45
0.0
1001
ACAD
1000
AcDbSavedByObjectVersion
1070
     0
  0
VISUALSTYLE
  5
32
102
{ACAD_REACTORS
330
2A
102
}
330
2A
100
AcDbVisualStyle
  2
Basic
 70
     7
 71
     1
 72
     0
 73
     1
 90
        0
 40
-0.6
 41
-30.0
 62
     5
 63
     7
421
 16777215
 74
     0
 91
        4
 64
     7
 65
   257
 75
     1
175
     1
 42
1.0
 92
        8
 66
     7
 43
1.0
 76
     1
 77
     6
 78
     2
 67
     7
 79
     5
170
     0
171
     0
290
     0
174
     0
 93
        1
 44
0.0
173
     0
291
     1
 45
0.0
1001
ACAD
1000
AcDbSavedByObjectVersion
1070
     0
  0
VISUALSTYLE
  5
36
102
{ACAD_REACTORS
330
2A
102
}
330
2A
100
AcDbVisualStyle
  2
Brighten
 70
    12
 71
     2
 72
     2
 73
     0
 90
        0
 40
-0.6
 41
-30.0
 62
     5
 63
     7
421
 16777215
 74
     1
 91
        4
 64
     7
 65
   257
 75
     1
175
     1
 42
1.0
 92
        8
 66
     7
 43
1.0
 76
     1
 77
     6
 78
     2
 67
     7
 79
     5
170
     0
171
     0
290
     0
174
     0
 93
        1
 44
50.0
173
     0
291
     1
 45
0.0
1001
ACAD
1000
AcDbSavedByObjectVersion
1070
     0
  0
VISUALSTYLE
  5
3A
102
{ACAD_REACTORS
330
2A
102
}
330
2A
100
AcDbVisualStyle
  2
ColorChange
 70
    16
 71
     2
 72
     2
 73
     3
 90
        0
 40
-0.6
 41
-30.0
 62
     5
 63
     8
421
  8421504
 74
     1
 91
        4
 64
     7
 65
   257
 75
     1
175
     1
 42
1.0
 92
        8
 66
     8
424
  8421504
 43
1.0
 76
     1
 77
     6
 78
     2
 67
     7
 79
     5
170
     0
171
     0
290
     0
174
     0
 93
        1
 44
0.0
173
     0
291
     1
 45
0.0
1001
ACAD
1000
AcDbSavedByObjectVersion
1070
     0
  0
VISUALSTYLE
  5
34
102
{ACAD_REACTORS
330
2A
102
}
330
2A
100
AcDbVisualStyle
  2
Conceptual
 70
     9
 71
     3
 72
     2
 73
     0
 90
        0
 40
-0.6
 41
-30.0
 62
     5
 63
     7
421
 16777215
 74
     2
 91
        2
 64
     7
 65
   257
 75
     1
175
     1
 42
40.0
 92
        8
 66
     7
 43
1.0
 76
     1
 77
     6
 78
     2
 67
     7
 79
     3
170
     0
171
     0
290
     0
174
     0
 93
        1
 44
0.0
173
     0
291
     0
 45
0.0
1001
ACAD
1000
AcDbSavedByObjectVersion
1070
     0
  0
VISUALSTYLE
  5
35
102
{ACAD_REACTORS
330
2A
102
}
330
2A
100
AcDbVisualStyle
  2
Dim
 70
    11
 71
     2
 72
     2
 73
     0
 90
        0
 40
-0.6
 41
-30.0
 62
     5
 63
     7
421
 16777215
 74
     1
 91
        4
 64
     7
 65
   257
 75
     1
175
     1
 42
1.0
 92
        8
 66
     7
 43
1.0
 76
     1
 77
     6
 78
     2
 67
     7
 79
     5
170
     0
171
     0
290
     0
174
     0
 93
        1
 44
-50.0
173
     0
291
     1
 45
0.0
1001
ACAD
1000
AcDbSavedByObjectVersion
1070
     0
  0
VISUALSTYLE
  5
39
102
{ACAD_REACTORS
330
2A
102
}
330
2A
100
AcDbVisualStyle
  2
Facepattern
 70
    15
 71
     2
 72
     2
 73
     0
 90
        0
 40
-0.6
 41
-30.0
 62
     5
 63
     7
421
 16777215
 74
     1
 91
        4
 64
     7
 65
   257
 75
     1
175
     1
 42
1.0
 92
        8
 66
     7
 43
1.0
 76
     1
 77
     6
 78
     2
 67
     7
 79
     5
170
     0
171
     0
290
     0
174
     0
 93
        1
 44
0.0
173
     0
291
     1
 45
0.0
1001
ACAD
1000
AcDbSavedByObjectVersion
1070
     0
  0
VISUALSTYLE
  5
2B
102
{ACAD_REACTORS
330
2A
102
}
330
2A
100
AcDbVisualStyle
  2
Flat
 70
     0
 71
     2
 72
     1
 73
     1
 90
        2
 40
-0.6
 41
30.0
 62
     5
 63
     7
421
 16777215
 74
     0
 91
        4
 64
     7
 65
   257
 75
     1
175
     1
 42
1.0
 92
        8
 66
     7
 43
1.0
 76
     1
 77
     6
 78
     2
 67
     7
 79
     5
170
     0
171
     0
290
     0
174
     0
 93
       13
 44
0.0
173
     0
291
     1
 45
0.0
1001
ACAD
1000
AcDbSavedByObjectVersion
1070
     0
  0
VISUALSTYLE
  5
2C
102
{ACAD_REACTORS
330
2A
102
}
330
2A
100
AcDbVisualStyle
  2
FlatWithEdges
 70
     1
 71
     2
 72
     1
 73
     1
 90
        2
 40
-0.6
 41
30.0
 62
     5
 63
     7
421
 16777215
 74
     1
 91
        4
 64
     7
 65
   257
 75
     1
175
     1
 42
1.0
 92
        0
 66
   257
 43
1.0
 76
     1
 77
     6
 78
     2
 67
     7
 79
     5
170
     0
171
     0
290
     0
174
     0
 93
       13
 44
0.0
173
     0
291
     1
 45
0.0
1001
ACAD
1000
AcDbSavedByObjectVersion
1070
     0
  0
VISUALSTYLE
  5
2D
102
{ACAD_REACTORS
330
2A
102
}
330
2A
100
AcDbVisualStyle
  2
Gouraud
 70
     2
 71
     2
 72
     2
 73
     1
 90
        2
 40
-0.6
 41
30.0
 62
     5
 63
     7
421
 16777215
 74
     0
 91
        4
 64
     7
 65
   257
 75
     1
175
     1
 42
1.0
 92
        0
 66
     7
 43
1.0
 76
     1
 77
     6
 78
     2
 67
     7
 79
     5
170
     0
171
     0
290
     0
174
     0
 93
       13
 44
0.0
173
     0
291
     1
 45
0.0
1001
ACAD
1000
AcDbSavedByObjectVersion
1070
     0
  0
VISUALSTYLE
  5
2E
102
{ACAD_REACTORS
330
2A
102
}
330
2A
100
AcDbVisualStyle
  2
GouraudWithEdges
 70
     3
 71
     2
 72
     2
 73
     1
 90
        2
 40
-0.6
 41
30.0
 62
     5
 63
     7
421
 16777215
 74
     1
 91
        4
 64
     7
 65
   257
 75
     1
175
     1
 42
1.0
 92
        0
 66
   257
 43
1.0
 76
     1
 77
     6
 78
     2
 67
     7
 79
     5
170
     0
171
     0
290
     0
174
     0
 93
       13
 44
0.0
173
     0
291
     1
 45
0.0
1001
ACAD
1000
AcDbSavedByObjectVersion
1070
     0
  0
VISUALSTYLE
  5
38
102
{ACAD_REACTORS
330
2A
102
}
330
2A
100
AcDbVisualStyle
  2
Linepattern
 70
    14
 71
     2
 72
     2
 73
     0
 90
        0
 40
-0.6
 41
-30.0
 62
     5
 63
     7
421
 16777215
 74
     1
 91
        4
 64
     7
 65
   257
 75
     7
175
     7
 42
1.0
 92
        8
 66
     7
 43
1.0
 76
     1
 77
     6
 78
     2
 67
     7
 79
     5
170
     0
171
     0
290
     0
174
     0
 93
        1
 44
0.0
173
     0
291
     1
 45
0.0
1001
ACAD
1000
AcDbSavedByObjectVersion
1070
     0
  0
VISUALSTYLE
  5
33
102
{ACAD_REACTORS
330
2A
102
}
330
2A
100
AcDbVisualStyle
  2
Realistic
 70
     8
 71
     2
 72
     2
 73
     0
 90
        0
 40
-0.6
 41
-30.0
 62
     5
 63
     7
421
 16777215
 74
     1
 91
        0
 64
     7
 65
   257
 75
     1
175
     1
 42
1.0
 92
        8
 66
     8
424
  7895160
 43
1.0
 76
     1
 77
     6
 78
     2
 67
     7
 79
     5
170
     0
171
     0
290
     0
174
     0
 93
       13
 44
0.0
173
     0
291
     0
 45
0.0
1001
ACAD
1000
AcDbSavedByObjectVersion
1070
     0
  0
VISUALSTYLE
  5
37
102
{ACAD_REACTORS
330
2A
102
}
330
2A
100
AcDbVisualStyle
  2
Thicken
 70
    13
 71
     2
 72
     2
 73
     0
 90
        0
 40
-0.6
 41
-30.0
 62
     5
 63
     7
421
 16777215
 74
     1
 91
        4
 64
     7
 65
   257
 75
     1
175
     1
 42
1.0
 92
       12
 66
     7
 43
1.0
 76
     1
 77
     6
 78
     2
 67
     7
 79
     5
170
     0
171
     0
290
     0
174
     0
 93
        1
 44
0.0
173
     0
291
     1
 45
0.0
1001
ACAD
1000
AcDbSavedByObjectVersion
1070
     0
  0
ENDSEC
  0
EOF
